Loading...
Donnas logo

Take It Off Donnas

  • 0
  • Share
  • Transposing
    0
  • Font Size
Artist-The Donnas
Title-Take It Off
Album-Spend The Night
Www.thedonnas.com
This tab is 100 percent correct.

X=palm mute
S=slide
H=hammer on

Intro
E---------------------------------------------------
B---------------------------------------------------
G-----------7---------------------------------------
D--4-6-6-4--7--7-7-7-7-7-7---4-6-6-4--5-5--7-7-7-7--
A--2-2-2-2--5--7-7-7-7-7-7---2-2-2-2--5-5--7-7-7-7--
E--------------5-5-5-5-5-5------------3-3--5-5-5-5--
x x x

Verse is the same except change the
E-------------------------------
B-------------------------------
G-------------------------------
D--4-6-6-4-----4-----4----------
A--2-2-2-2-to--2-----2----------
E----------------0-0------------
x x
Pre-Chorus
E-----------------------------------------------
B-----------------------------------------------
G-----------------------------------------------
D--4-4-4-4-4-4-4-4-4-4-4-4-4-4-4-4--------------
A--4-4-4-4-4-4-4-4-4-4-4-4-4-4-4-4--------------
E--2-2-2-2-2-2-2-2-2-2-2-2-2-2-2-2--------------

Chours
E-----------------------------------------------
B-----------------------------------------------
G--4--4--4------7---2-2-2-2-2-2-2---------------
D--4--4--4------7---2-2-2-2-2-2-2--2-2-2-2-2-2--
A--2--2--2--0-0-5---0-0-0-0-0-0-0--2-2-2-2-2-2--
E----------------------------------0-0-0-0-0-0--
Take it off,......... Shake it off,............

E-------------------------------------------------------
B-------------------------------------------------------
G----------------------------------------4--4--4-4----7-
D--4-4-4-4-4-4-4-4-4-4-4-4-4-4-4-4-4-4---4--4--4-4----7-
A--4-4-4-4-4-4-4-4-4-4-4-4-4-4-4-4-4-4---2--2--2-2--0-5-
E--2-2-2-2-2-2-2-2-2-2-2-2-2-2-2-2-2-2------------------
'Cause I Get_________ what...............

Solo
E----------------------------------------------------------------------
B-----------------------------------------------------7-------7---7--9-
G--2----2---------------------------------------------7-------7---7--9-
D-----4---4---2----2------4s9--9--9--7-9---9--9--9--7----9--9---9------
A----------------4----4-2----------------------------------------------
E----------------------------------------------------------------------

E---------------------------------------5--------------------------
B--7-----------------------------5---5-----------------------------
G--7-------------------2------2--4---4-----4---4-----2h4--2--------
D-----9--7--9--9s2--4-----4-----------------------4----------------
A------------------------------------------------------------------
E------------------------------------------------------------------

Breakdown
E------------------------------------------------------------
B------------------------------------------------------------
G------------------------------------------------------------
D------5------5------7-----7------9-----9------9-----9-------
A------5------5------7-----7------9-----9------9-----9-------
E--3-3-3--3-3-3--5-5-5-5-5-5--7-7-7-7-7-7--7-7-7-7-7-7-------
x x x x x x x x x x x x x x x x

The End

Log In to leave a comment

After registration we will return you to the same place
Comments
face-with-monocle
If you wait a bit, some comments may appear here...

Shhh...