Do As Infinity logo

Tooku Made Do As Infinity

  • 1
  • Share
  • Transposing
    0
  • Font Size
    15
Do As Infinity – Tooku Made
Do As Infinity
Tooku Made
Standard Tuning
Tabbed by Md Farhan B Jamal.  Borrowed/Edited by Alex Fragd (mavrick_45)
Mavrick_45@sugarray.com

Part One
G--------------------------------------------------------
D
A---5-5-β€”5β€”-5-β€”5---------------5-7-7β€”-7β€”-7β€”-7-7-7β€”-7-9---
E------------------5-5β€”-5β€”-5-7---------------------------

Part Two X2
G------------------------------------
D
A---5-7-9-10β€”10--10-9-9β€”-7β€”-7β€”-7-7---
E------------------------------------

Part Three
G-----------
D
A---5-7-9---
E-----------

Part One
Part Two X2
Part Three
Part One
Part Two X2

Part Four
G------------------------------------------------
D
A---5-7-9-10-10-β€”10-9-9--/12-12-12-12-12-12-12---
E------------------------------------------------

Part Five
G
D----------------4---4β€”-5/7-5-4-----
A---5-5-β€”5β€”-5-β€”5---5------------5---
E-----------------------------------

Chorus
G
D-------------------------------------------------/9-7-7-7/------------
A-------------5-4-------------5-4-------------4-5-----------0---5-4----
E---3-3-3-3-3-----3-5-5-5-5-5-----5-7-7-7-7-7-----------------------5β€”-

G
D-------------------------------------------------/9-7-7-7-5-5-4-4----
A-------------5-4-------------5-4-------------4-5------------------5--
E---3-3-3-3-3-----3-5-5-5-5-5-----5-7-7-7-7-7-------------------------

G
D-------------------------------------------------/9-7-7-7/------------
A-------------5-4-------------5-4-------------4-5-----------0---5-4----
E---3-3-3-3-3-----3-5-5-5-5-5-----5-7-7-7-7-7-----------------------5β€”-

G--------------------------------------------------------------------
D
A-------------5-4-------------5-4-----------------/10-10-9-9-7-7/----
E---3-3-3-3-3-----3-5-5-5-5-5-----5-3-3-3-3-3-3-3--------------------

Part one
Part Two X2
Part Three
Part one
Part Two X2
Part Three
Part One
Part Two X2

Part Six
G------------------------------------------------
D
A---5-7-9-10-10-β€”10-9-9--/12-12-12-12-12-12-12---
E------------------------------------------------

Part Seven
G
D----------------4---4β€”-5/7---/---
A---5-5-β€”5β€”-5-β€”5---5--------7-----
E---------------------------------

Chorus

Part Eight X3
G--------------------------------
D
A------------------------6-5-6---
E---6-6----1-1----4-4------------

Part Nine
G
D-------------------------------11h12p11-β€”11β€”-11----------12-14----14-16-----
A-----------/12-12-12-/12-12-12---------12β€”-12---12-12-12-------14-------16-
E---5555555------------------------------------------------------------------

Chorus w/variation
G
D-------------------------------------------------/9-7-7-7/------------
A-------------5-4-------------5-4-------------4-5-----------0---5-4----
E---3-3-3-3-3-----3-5-5-5-5-5-----5-7-7-7-7-7-----------------------5β€”-

G---------------------------------------------------------11----11-----
D-------------------------------------------------/9-7/12----12----12-
A-------------5-4-------------5-4-------------4-5----------------------
E---3-3-3-3-3-----3-5-5-5-5-5-----5-7-7-7-7-7--------------------------

G
D---5-5---4---/12-11h12p11-----/12-12-12-12---
A-----------7--------------12----------------
E---------------------------------------------

G
D-----------------/9-7-7-7/--------------
A-------------4-5-----------0----5-4-----
E---7-7-7-7-7------------------------5---

G-----------------------------------------------------------------
D
A-------------5-4-------------5-4-----------------/10-10-9-9-7-7/-
E---3-3-3-3-3-----3-5-5-5-5-5-----5-3-3-3-3-3-3-3-----------------

Part One
Part Two

End
G----------------------------------------
D
A---5-7-9-3-3β€”-3-2---/12-12-12-12-12-----
E------------------5-----------------3---

Log In to leave a comment

After registration we will return you to the same place
Comments
face-with-monocle
If you wait a bit, some comments may appear here...

Shhh...