Loading...
  • 0
  • Share
  • Transposing
    0
  • Font Size
Do As Infinity
Snail
Standard Tuning
Tabbed By Alex Fragd (Mavrick_45)
[email protected]

Part one X2
G--------5---6--------5---6---5---6---
D-------------------------------------
A---6-----------6-------------------
E-------------------------------------

Part two X2
G-------------------------------------------
D-------------4-4-4-4---6-6-6-6---9-9-9-9---
A---6-6-6-6---------------------------------
E-------------------------------------------

Part one X4
Part two X2
Part one X4

Part three
G--------------15-11-8-----------11-----
D---8-9---13-----------7---10-13----8---
A---------------------------------------
E---------------------------------------

Part four X2
G-------------------------------------------
D-----------------------4-4-4-4---3-3-3-3---
A---6-6-6-6---------------------------------
E-------------7-7-7-7-----------------------

2nd time only
G------------------------------------------------I---------
D--------------------------11/13-11-15-11--------I---------
A---6-9-13-14-14-14-14-9-9----------------11-8---I---------
E------------------------------------------------I---7-7---

Part two X2
Part one X4
Part three
Part four X2
Part one X2
Part two X3
Part three
Part four X4 (the “2nd time only” part play only the 4th time.
Also it has this variation: E---7-7-5-7---)

Ending
A---6>---

Log In to leave a comment

After registration we will return you to the same place
Comments
face-with-monocle
If you wait a bit, some comments may appear here...

Shhh...

Most Popular
You Might Like