Loading...
Disturbed logo

Believe Disturbed

  • 0
  • Share
  • Transposing
    0
  • Font Size
Believe-Disturbed
Believe

Drop Db:
C# G# C# F# A# D#

Intro:

E----------------------------------------------------------
B----------------------------------------------------------
G----------------------------------------------------------
D-7-7---7---7-10-10---10---10-10-10---10---10--------------
A-5-5---5---5--5--5----5----5--8--8----8----8--13--13--12--
D-5-5---5---5--5--5----5----5--8--8----8----8--12--12--12--

E----------------------------------------------------------
B----------------------------------------------------------
G----------------------------------------------------------
D-7-7---7---7-10-10---10---10-10-10---10---10--------------
A-5-5---5---5--5--5----5----5--8--8----8----8--------------
D-5-5---5---5--5--5----5----5--8--8----8----8--0-0-0-0-0-0-

Verses:

Pm
E--------------------------------------------------
B--------------------------------------------------
G--------------------------------------------------
D--------------------------------------------------
A-5-5---5---5-5-5---5---5-8-8---8---8--13--13--12--
D-5-5---5---5-5-5---5---5-8-8---8---8--12--12--12--

E--------------------------------------------------
B--------------------------------------------------
G--------------------------------------------------
D--------------------------------------------------
A-5-5---5---5-5-5---5---5-8-8---8---8--------------
D-5-5---5---5-5-5---5---5-8-8---8---8--0-0-0-0-0-0-

E--------------------------------------------------
B--------------------------------------------------
G--------------------------------------------------
D--------------------------------------------------
A-5-5---5---5-5-5---5---5-8-8---8---8--13--13--12--
D-5-5---5---5-5-5---5---5-8-8---8---8--12--12--12--

E--------------------------------------------------
B--------------------------------------------------
G--------------------------------------------------
D--------------------------------------------------
A-5-5---5---5-5-5---5---5-8-8---8---8--8-8-8-8-8-8-
D-5-5---5---5-5-5---5---5-8-8---8---8--8-8-8-8-8-8-

X2
E--------------------------------------------------
B--------------------------------------------------
G--------------------------------------------------
D-7-7---7---7--------------------------------------
A-5-5---5---5-5-5---5---5-8-8---8---8--13--13--12--
D-5-5---5---5-5-5---5---5-8-8---8---8--12--12--12--

E--------------------------------------------------
B--------------------------------------------------
G--------------------------------------------------
D-7-7---7---7--------------------------------------
A-5-5---5---5-5-5---5---5-8-8---8---8--------------
D-5-5---5---5-5-5---5---5-8-8---8---8--0-0-0-0-0-0-

Chorus:

E---------------------------------------------
B---------------------------------------------
G---------------------------------------------
D-----------------------3----3--3-3-----------
A-8---8--8-8-12-12--8---3----3--3-3--6--8--6--
D-8---8--8-8--8--8--8---3----3--3-3--6--6--6--

E-----------------------------------------------
B-----------------------------------------------
G-----------------------------------------------
D-----8-------8---------------8-------8---------
A-5---8---5---8---1---1---5---8---5---8---1---1-
D-5-------5-------1---1---5-------5-------1---1-

E---------------------------------------------
B---------------------------------------------
G---------------------------------------------
D-----------------------3----3--3-3-----------
A-8---8--8-8-12-12--8---3----3--3-3--6--8--6--
D-8---8--8-8--8--8--8---3----3--3-3--6--6--6--

E----------------------------------------------
B----------------------------------------------
G----------------------------------------------
D-------------5---5--5-5--8---8--8-8-----------
A-5---5--5-5--3---3--3-3--6---6--6-6--3--3--3--
D-5---5--5-5--------------------------3--3--3--

E----------------------------------------------
B----------------------------------------------
G----------------------------------------------
D-------------5---7--5-5--8---8--8-8-----------
A-5---5--5-5--3---3--3-3--6---6--6-6--3--3--1--
D-5---5--5-5--------------------------3--3--1--

E----------------------------------------------
B----------------------------------------------
G----------------------------------------------
D-------------5---5--5-5--8---8--8-8-----------
A-5---5--5-5--3---3--3-3--6---6--6-6--8--8--8--
D-5---5--5-5--------------------------8--8--8--

E----------------------------------------------
B----------------------------------------------
G----------------------------------------------
D-------------5---7--5-5--8---8--8-8-----------
A-5---5--5-5--3---3--3-3--6---6--6-6--3--3--1--
D-5---5--5-5--------------------------3--3--1--

1st ending
Pm
E-----------------------------
B-----------------------------
G-----------------------------
D-----------------------------
A-6-6-6--6-6-6--6-6-6--6-6-6--
D-6-6-6--6-6-6--6-6-6--6-6-6--

2nd ending
Pm, let ring
E-----------------------------------------------------------------
B-----------------------------------------------------------------
G-----------------------------------------------------------------
D-----------------------------------------------------------------
A-6-6-6--6-6-6--6-6-6--6-6-6--0-----------------------------------
D-6-6-6--6-6-6--6-6-6--6-6-6--0-----------------------------------

Interlude: x2

Gtr. 1

E------------------------------------------
B------------------------------------------
G------------------------------------------
D------------------------------------------
A--------8p7---------7p5--------5p3p0--/8--
D-0----0-------0--0-------0--0-------------

Gtr. 2

E-----------------------------------------
B-----------------------------------------
G-----------------------------------------
D-----------------------------------------
A--------12p10------10p8-------8p6p5------
D-0----0-------0--0------0--0--------/10--

Gtr. 1

E------------------------------------------
B------------------------------------------
G------------------------------------------
D------------------------------------8-----
A--------8p7---------7p5-------------8-----
D-0----0-------0--0-------0--0--8----------

Gtr. 2

E-----------------------------------------
B-----------------------------------------
G-----------------------------------------
D------------------------------------8----
A--------12p10------10p8--------8----8----
D-0----0-------0--0------0--0-------------

Bridge: x4

E------------------------------------------------
B------------------------------------------------
G------------------------------------------------
D------------------------------------------------
A-------------8p7---------7p5---------5p3p0--/8--
D-0-0-0-0-0-0-----0-0-0-0-----0-0-0-0------------

E------------------------------------------------
B------------------------------------------------
G------------------------------------------------
D--------------------------------------------10--
A-------------8p7---------7p5---------8-------8--
D-0-0-0-0-0-0-----0-0-0-0-----0-0-0-0-8-------8--

Play x7 over Bridge

E-----------------------
B-----6-5-6-5-6p5-------
G-7---------------7-----
D-----------------------
A-----------------------
D-----------------------

Interlude:

(strum)

Gtr. 1

E----------------------------------------------------------
B----------------------------------------------------------
G----------------------------------------------------------
D-7-7---7---7-10-10---10---10-10-10---10---10--------------
A-5-5---5---5--5--5----5----5--8--8----8----8--13--13--12--
D-5-5---5---5--5--5----5----5--8--8----8----8--12--12--12--

Gtr. 2

E----------------------------------------------------------
B----------------------------------------------------------
G----------------------------------------------------------
D-7------------3---------------7-----------------3---------
A----------------------------------------------------------
D----------------------------------------------------------

Gtr. 1

E----------------------------------------------------------
B----------------------------------------------------------
G----------------------------------------------------------
D-7-7---7---7-10-10---10---10-10-10---10---10--------------
A-5-5---5---5--5--5----5----5--8--8----8----8---0---0---0--
D-5-5---5---5--5--5----5----5--8--8----8----8---0---0---0--

Gtr. 2

E----------------------------------------------------------
B----------------------------------------------------------
G----------------------------------------------------------
D-7------------3---------------7----------------8----------
A----------------------------------------------------------
D----------------------------------------------------------

Outro:
W/ some pm
X3
E---------------------------------------------------
B---------------------------------------------------
G---------------------------------------------------
D---------------------------------------------------
A-5---5--------10---10--------1---1--------3--3--1--
D-5---5-5-5-5--10---10101010--1---1-1-1-1--3--3--1--

Pm, let ring
E-----------------------------------------------------------------
B-----------------------------------------------------------------
G-----------------------------------------------------------------
D-----------------------------------------------------------------
A-6-6-6--6-6-6--6-6-6--6-6-6--5-----------------------------------
D-6-6-6--6-6-6--6-6-6--6-6-6--5-----------------------------------

That’s all

*from the Disturbed tab book*

Trevor jones
[email protected]

Log In to leave a comment

After registration we will return you to the same place
Comments
face-with-monocle
If you wait a bit, some comments may appear here...

Shhh...

Most Popular
You Might Like