Loading...
Disturbed logo

Awaken Disturbed

  • 0
  • Share
  • Transposing
    0
  • Font Size
Disturbed – Awaken
Awaken-Disturbed
Believe

Drop Db:
C# G# C# F# A# D#

Intro: x2

E-----------------------------------------------------------------
B-----------------------------------------------------------------
G--------------------------------------------------------------
D------/3-2---------------------------/3-2---------------------
A-3-2--------3-2---3-2-/6-5-5-5--3-2--------3-2---3-2-/6-5--5-----
D-3-2--------3-2---3-2-/6-5-5-5--3-2--------3-2---3-2-/6-5--5-----

E-----------------------------------------------------------------
B-----------------------------------------------------------------
G-----------------------------------------------------------------
D------/3-2---------------------------/3-2------------------------
A-3-2--------3-2---3-2-/6-5-5-5--3-2--------3-2---5-5--x---x---x--
D-3-2--------3-2---3-2-/6-5-5-5--3-2--------3-2---5-5--x---x---x--

Verse 1: (x2)

W/ flanger

E---------------0--------------------------------0----------------
B-----------------------------------------------------------------
G-9-------------------------------9-------------------------------
D-9---------------------------x-x-8---------------------------x-x-
A-7---------------------------x-x-7---------------------------x-x-
D-----------------------------------------------------------------

E-----------------------------------------------------------------
B---------------------------------------------------------------0-
G-12-----------12-------------------------------12----------------
D-11--------------------------x-x-14--------------------------x---
A-10--------------------------x-x-10--------------------------x---
D-----------------------------------------------------------------

E---------------0--------------------------------0----------------
B-----------------------------------------------------------------
G-9-------------------------------9-------------------------------
D-9---------------------------x-x-8---------------------------x-x-
A-7---------------------------x-x-7---------------------------x-x-
D-----------------------------------------------------------------

1st ending:
E-----------------------------------------------------------------
B-----------------------------------------------------------------
G-12-----------12-----------------12------------12----------------
D-11------------------------------11--------------------------x-x-
A-10------------------------------10--------------------------x-x-
D-----------------------------------------------------------------

2nd ending:

E-----------------------------------------------------------------
B-----------------------------------------------------------------
G-12-----------12-----------------12----12---12-12---12--12---12--
D-11------------------------------11----11---11-11---11--11---11--
A-10------------------------------10----10---10-10---10--10---10--
D-----------------------------------------------------------------

Chorus: x2

E-------------------------------------------------------------
B-------------------------------------------------------------
G-----------------4-4-4-----5-5-----------------4-4-4---------
D---------------------------5-5-------------------------------
A----/5-5-5-5-3--------------------/5-5-5-5-3-----------------
D-2-----------3---------5-5-----2-----------3---------5-5--0--

E--------------------------------------------------------------
B--------------------------------------------------------------
G-----------------4-4-4-----5-5--------------------------------
D---------------------------5-5--------------------------------
A----/5-5-5-5-3------------------------------------------------
D-2-----------3---------5-5-----2--0-0-0-0---0-0-0-0-0---0-0-0-

After choruses: x2

E-----------------------------------------------------------------
B-----------------------------------------------------------------
G-----------------------------------------------------------------
D-32---------32---------3-2-----32---------32---------3-2-----
A-32---x-x-x-32-x-x-x-0-3-2-----32---x-x-x-32-x-x-x-0-3-2-----
D-32---x-x-x-32-x-x-x-0-3-2-----32---x-x-x-32-x-x-x-0-3-2-----

E-----------------------------------------------------------------
B-----------------------------------------------------------------
G-----------------------------------------------------------------
D-32---------32---------3-2-----65-----------------------------
A-32---x-x-x-32-x-x-x-0-3-2-----65-------5-5----5----x-x---5---
D-32---x-x-x-32-x-x-x-0-3-2-----65-------5-5----5----x-x---5---

Before 2nd verse:

E-----------------------------------------------------------------
B-----------------------------------------------------------------
G-9---------------------------------------------------------------
D-9---------------------------9p7-8-------------------------------
A-7---------------------------7---7-------------------------------
D-----------------------------------------------------------------

E-----------------------------------------------------------------
B-----------------------------------------------------------------
G------------------------------12---------------------------------
D-11---------------------------11-14--------------------------x-x-
A-10---------------------------10-10--------------------------x-x-
D-----------------------------------------------------------------

2nd Verse: (play 1st verse with)

Pm throughout
X4
E-----------------------------------------------------------------
B-----------------------------------------------------------------
G-----------------------------------------------------------------
D-----------------------------------------------------------------
A-3-2---------3-2---2--2---------3-2----------3-2---5-5---5---5---
D-3-2-----x---3-2---2--2-----0-0-3-2------x---3-2---5-5---5---5---

Then,

E-----------------------------------------------------------------
B-----------------------------------------------------------------
G-----------------------------------------------------------------
D------3-2---------------------------3-2--------------------------
A-----------------------------------------------------------------
D-3-2-------3-2---3-2---6-5---5-3-2-------3-2---3-2---6-5--5--5---

E-----------------------------------------------------------------
B-----------------------------------------------------------------
G-----------------------------------------------------------------
D------3-2---------------------------3-2--------------------------
A----------------------------------------------------------5--5---
D-3-2-------3-2---3-2---6-5---0-3-2-------3-2---3-2---6-5--5--5---

Chorus
After Chorus

2nd Ending: let ring & fade

E-----------------------------------------------------------------
B-----------------------------------------------------------------
G-----------------------------------------------------------------
D-----------------------------------------------------------------
A-2---------------------------------------------------------------
D-2---------------------------------------------------------------

Bridge:

X2
E---------0---------0-----------------------0---------0-----------
B--------------------------------0------------------------------0-
G-----------------------------------------------------------------
D-----------------------------------------------------------------
A-----------------------------------3-----------------------------
D-2---------------------------------------------------------------

E-------------------0-------------------------------------0-------
B---------1----------------------1----------3----------------3----
G---------2---------------------------------4-------------------4-
D---------2---------------------------------4---------------------
A-0---------------------------------2-----------------------------
D-----------------------------------------------------------------

Then,

E-------------------0---------------------------------------------
B---------1--------------------1----------------------------------
G---------2-----------------------4-4-4-4-4-4-4-4-4-4-4-4-4-4-4-4-
D---------2-----------------------4-4-4-4-4-4-4-4-4-4-4-4-4-4-4-4-
A-0-------------------------------2-2-2-2-2-2-2-2-2-2-2-2-2-2-2-2-
D-----------------------------------------------------------------

Outro:

X3
E-----------------------------------------------------------------
B-----------------------------------------------------------------
G-----------------------------------------------------------------
D-3-2-x-x-x-x-3-2-x-x-x-x-3-2-x-x-3-2-x-x-x-x-3-2-x-x-x-x-3-2-x-x-
A-3-2-x-x-x-x-3-2-x-x-x-x-3-2-x-x-3-2-x-x-x-x-3-2-x-x-x-x-3-2-x-x-
D-3-2-x-x-x-x-3-2-x-x-x-x-3-2-x-x-3-2-x-x-x-x-3-2-x-x-x-x-3-2-x-x-

Then

E-----------------------------------------------------------------
B-----------------------------------------------------------------
G-----------------------------------------------------------------
D-3-2-x-x-x-x-3-2-x-x-x-x-3-2-------------------------------------
A-3-2-x-x-x-x-3-2-x-x-x-x-3-2-------------------------------------
D-3-2-x-x-x-x-3-2-x-x-x-x-3-2-------------------------------------

That’s all

*from the Distubed tab book*

Trevor jones
[email protected]

Log In to leave a comment

After registration we will return you to the same place
Comments
face-with-monocle
If you wait a bit, some comments may appear here...

Shhh...