Loading...
Dire Straits logo

Money 4 nothing Dire Straits

  • 0
  • Share
  • Transposing
    0
  • Font Size
From: [email protected]

Dire Straits: Money for Nothing - Main Riff.
=================

--------------------------------------------------------------
-----------------5--------------------------------------------
------7--7--5^7--6--7--5--3--0--0--0^3--3/5-------------------
------5--5--5-5-----5--5--5--0--0--0^3--3/5-------------------
--------------------------------------------------------------
--------------------------------------------------------------

--------------------------------------------------------------
--------------------------8-----------------------------------
------7--7---------5---7--7--7---5--------0--0^3--------------
------5--5---5--8-------------------8--5--0--0^3---3/5--------
---------------------------------------------------3/5--------
--------------------------------------------------------------

I think it could be slightly incorrect, as I'm sure I missed
Out something but I can't be sure where...
Also I don't happen to have my guitar with me, and don't really
Know how the song exactly goes... but have a play with it and
You'll probably have a better idea how it goes...

Matt.

Log In to leave a comment

After registration we will return you to the same place
Comments
face-with-monocle
If you wait a bit, some comments may appear here...

Shhh...