Loading...
Dimmu Borgir logo

Mourning Palace Dimmu Borgir

  • 0
  • Share
  • Transposing
    0
  • Font Size
/-------------------------------------------------------------------------/
/ The following is the author's own interpretation of the song, to be /
/ used for private use and studying /
/-------------------------------------------------------------------------/
Dimmu Borgir – Mourning Palace
From the Album: Enthroned Darkness Triumphant
Version 1.0 - (January - 2003)

Transcribed by: Kim Цнmаn

For Questions, Comments, Newest Version, or Corrections contact
Kim Цнmаn: at [email protected]

Check Out Death Warp, With More Transcriptions On It:

/ - slide up to *
- slide down to - repeat signs
B - hammer on *
P - pull off
~ - vibrato
B - bend
< - accent note
* - see comment

Me and my friend Jonas decided to learn us this great song because
We are big fans of Dimmu Borgir and also so we can play it live with our band.
I consider this tab very accurate.
Listen to the Cd for timing

Normal 5-stringed bass tuning: B E A D G

Intro
G |---------|
D |---------|
A |---------|
E |-2-5-4/7-|
B |---------|

Riff A x6
|-------------------------------------------------|
|*-----------------------------------------------*|
|-------------------------------------------------|
|*-2-22222-22222-22222-22222-22222-22222-2-5-4/7-*|
|-------------------------------------------------|

Riff B x4
|----------------------------------------------------------------------
|*---------------------------------------------------------------------
|------------------------------------------------—-7--7-7-7-7-7--7-7-6-
|*-0/2-2-2-2-2-2--2-2-2-2--0/2-2-2-2-2-2--2-2-2-2----------------------
|----------------------------------------------------------------------

------------------------|
-----------------------*|
------------------------|
-7--7-7-7-7-7--7-7-7-7-*|
------------------------|

Intro x1
Riff A x4
Riff B x4

Riff C.1 (Hear the cries of the mourning palace…)
|-------------------------|
|-------------------------|
|-0-00000-00000-2-5-2-----|
|---------------------5---|
|-----------------------3-|

Riff C.2 x4
|-------------------------------------------------------|
|*-----------------------------------------------------*|
|---------2-2222---------------0-00000-00000-2-5-2------|
|*-0-0000--------0-00000-00000---------------------5---*|
|----------------------------------------------------3--|

Riff D.1
|------------|
|------------|
|-3-3-3-5--6-|
|------------|
|------------|

Riff D.2 x2
|------------------------------------------------------------------------|
|*----------------------------------------------------------------------*|
|-------------------------3-3-3-6--5-------------------------3-3-3-5--6--|
|*-00--00--00--00--00--00-------------00--00--00--00--00--00------------*|
|------------------------------------------------------------------------|

Riff D.3 x2
|-----------------------------------------------------|
|*---------------------------------------------------*|
|-----------------3-3-3-5-6----------------3-3-3-6-5--|
|*-00--00--00--00-----------00--00--00--00-----------*|
|-----------------------------------------------------|

Riff C.2 x4

Fill 1
|---------|
|---------|
|-2--rest-|
|---------|
|---------|

Fill 2
|-----------------------------------|
|-----------------------------------|
|-2------1-2------------------------|
|-----------------3------2/3-0------|
|-----------------------------------|

Riff E x6 (pick the all notes twice)
|---------------------------------------|
|*-------------------------------------*|
|--2-2-2-2-2-2-------------------2-5-4--|
|*-------------3-3-3-3-2/3-0-0-0-------*|
|---------------------------------------|

Riff F x4
|-----------------------|
|*---------------------*|
|--2-----2-----2--------|
|*-------------------3-*|
|-----------------------|

Riff E x4

End
|-------|
|-------|
|-------|
|-6-7--|
|-------|

Check Out Death Warp, With More Transcriptions On It:

Log In to leave a comment

After registration we will return you to the same place
Comments
face-with-monocle
If you wait a bit, some comments may appear here...

Shhh...