Loading...
Dimmu Borgir logo

Metal Heart Dimmu Borgir

  • 0
  • Share
  • Transposing
    0
  • Font Size
Intro
E-----------------------------------|
B-----------------------------------|
G-||.-4~~-3--------------4-4--3h4p3----3--------------------|
D-||.-------5-4-2~~~-4-5-------------5---5-2~~~-------------|
A-----------------------------------|
E-----------------------------------|

E----------------------------------------------||2x
B----------------------------------------------||
G-|---2----------------------4-4-4-3----------------------.||
D-|-4---5-4--2-1-2-4-5-2~~~----------5-2-4~~~~~~----------.||
A----------------------------------------------||
E----------------------------------------------||

Main Riff
E-|---------------------------------|
B-|---------------------------------|
G-|---||.---------------------------------------------------|
D-|-5-||.-5-5-5-5-5-5--5-5-5-5-5-6--6-6-6-6-6-6--6-6-6--6-6-|
A-|-3-||--3-3-3-3-3-3--3-3-3-3-3-3--3-3-3-3-3-3--3-3-3--3-3-|
E-|---------------------------------|

E----------------------------------------------||2x
B----------------------------------------------||
G---------------------------------------------.||
D-|-5--5-5-5-5-5-5--5-5-5-5-5-5--5-5---6---5--------------.||
A-|-3--3-3-3-3-3-3--3-3-3-3-3-3--3-3---3---3---------------||
E----------------------------------------------||

Main Riff part 2 -- Verse Riff
E-----------------------------------|
B-----------------------------------|
G-||.-------------------------------------------------------|
D-||.-5-5-5-5-5-5--5-5-5-5-5-6--6-6-6-6-6-6--6-6-6--6-6-----|
A-||--3-3-3-3-3-3--3-3-3-3-3-3--3-3-3-3-3-3--3-3-3--3-3-----|
E-----------------------------------|

E-----------------------------------------------|
B-----------------------------------------------|
G-----------------------------------------------|
D-|-5--5-5-5-5-5-5--5-5-5-5-5-5--5-5------------------------|
A-|-3--3-3-3-3-3-3--3-3-3-3-3-3--3-3--6-5-------------------|
E-------------------------4-3-------------------|

E----------------------------------------------||2x
B----------------------------------------------||
G---------------------------------------------.||
D-|-5-5-5-5-5-5-5-5-5-5-5-6--6-6-6-6-6-6-6-6-6-6-6-5------.||
A-|-3-3-3-3-3-3-3-3-3-3-3-3--3-3-3-3-3-3-3-3-3-3-3-3-6--5--||
E----------------------------------------4--3--||

Chorus
E-----------------------------------------------|
B-----------------------------------------------|
G-|-2-0-2-------------5-4-5--------------9-7-10--9----------|
D-|-2-0-2-------------7-5-7-------------10-9-12-10----------|
A-|-0---0--0-0-0-0-------------0-0-0-0-----------------5----|
E---------------------------------------0--3----|

E-----------------------------------------3-----|
B-----------------------------------------3-----|
G-|-2-0-2-------------5-4-5-------------9-7-10--9-----0-----|
D-|-2-0-2-------------7-5-7------------10-9-12-10-----0-----|
A-|-0---0--0-0-0-0------------0-0-0-0-----------------2-----|
E--------------------------------------0--3-----|

Things To Come:
Solo
Verse Riffs complete
Solo at end

Solo:

--------------------------------------------------------|
--------------------------------------------------------|
--------------------------------------------------------|
-------7---9--10----------------------------------------|
|-7-------7-9-10----------------------------------------------------|
--------------------------------------------------------|

--------------------------------------------------------|
--------------------------------------------------------|
|-8-9-11-9-8-9-9-9-9-9-9-9-9-9-9-9-9-9-9-9-9-9-9-9-9----------------|
--------------------------------------------------------|
--------------------------------------------------------|
--------------------------------------------------------|

--------------------------------------------------------|
------------------------8-10-10b--10-8-7----------------|
|-9p8------8h9p8------8h9p8-----8-9---------------------------------|
|------10--------10---------10--------------------------------------|
--------------------------------------------------------|
--------------------------------------------------------|

|----8p7----7h8p7-----7h8p7------7-8-10--8-7-8-7-----7--------------|
|--------10-------10---------10-------------------10---10-8-10-7-8-7|
|-9-----------------------------------------------------------------|
--------------------------------------------------------|
--------------------------------------------------------|
--------------------------------------------------------|

--------------------------------------------------------|
---15b15~~~---------------------------------------------|
|-9----12b12-------------12-10-12----10-----------------------------|
----------------------12-----13---10~--------10---------|
-----------------------------------------10-------------|
--------------------------------------------------------|

--------------------------------------------------------|
--------------------------------------------------------|
-----------------------------12-10-12-----10------------|
|-12h13p12--13p12h13p12---12b--10-----------------12-----13-10~-----|
----------------------10/----------------------------10-|
--------------------------------------------------------|

--------------------------------------------------------|
--------------------------------------------------------|
----------------------------10b--10b--12b---10----------|
|-12h13p12--13p12h13p12--12b--10-12-13------------------------------|
--------------------------------------------------------|
--------------------------------------------------------|

--------------------------------------------------------|
--------------------------------------------------------|
|-8h10p8h10p8h10p8h10p8h10p8h10p8h10p8h10-p-8/7h8p7/5h7p5/4h5p4-----|
-----------------------------------------------------7--|
--------------------------------------------------------|
--------------------------------------------------------|

------------------12----------------------12------------|
---------------------13----------12-13-15----13---------|
|-4h5p4---5p4---4h5p4---------------14----14----------------14------|
--7-------7-5~-------------14----------------------14---|
--------------------------------------------------------|
--------------------------------------------------------|

|--------13----------------------13-------------------13------------|
|----12-----15----------------15----15-------------15---------------|
|-14-----------16----16----16----------16----16---------------------|
------17----17----------------17----17------------------|
--------------------------------------------------------|
--------------------------------------------------------|

|-12----------------------12---------------10-----------------------|
|----13----------12-13-15----13---------12----12----------10-12-13--|
|-------14----14----------------14---14----------12----12-----------|
|----------14---------------------14----------------12--------------|
--------------------------------------------------------|
--------------------------------------------------------|

|-10-13--13--------------10-12----12--------10-13----13-------------|
10--12-10-12-------------12-13--------------10-12-10-12-|
--------------------------------------------------------|
--------------------------------------------------------|
--------------------------------------------------------|
--------------------------------------------------------|

|-10-12----12---------------10-13-10-13------------10-12-10-12------|
--12-13-12-13--------------10-12-10-12-------------12-13|
--------------------------------------------------------|
--------------------------------------------------------|
--------------------------------------------------------|
--------------------------------------------------------|

--------------------------------------------------------|
|-13p12p10-13p12p10-13p12p10-13p12p10-15p13p12-15p13p12-17p15p13----|
--------------------------------------------------------|
--------------------------------------------------------|
--------------------------------------------------------|
--------------------------------------------------------|

--------------------------------------------------------|
|-17p15p13-18p17p15-18p17-20-18-16----------------------------------|
-----------------------19-17-16-------------------------|
--------------------------------18-17-15----------------|
-----------------------------------------18-17-15-------|
--------------------------------------------------19-17-|

--------------------------------------------------------|
--------------------------------------------------------|
--------------------------------------------------------|
----------------16-17-19-17---14------------------------|
----14-15-17-18-----------------------------------------|
|-15-14---15-17-----------------------------------------------------|

|-12-15-12----------------12-15-12----------------------------------|
|----------13----------13----------13----------13-------------------|
--12----12----------------12----12----------------------|
-----13----------------------14-------------------------|
--------------------------------------------------------|
--------------------------------------------------------|

|-12-15-12----------------12-15-12----------------------------------|
|----------13----------13----------13-------------------------------|
--12----12----------------12----------------------------|
-----13-------------------------------------------------|
--------------------------------------------------------|
--------------------------------------------------------|

--------------------------------------------------------|
--------------------------------------------------------|
|-11-12-11-12-11-12-11-12-11-12-11-12-11-12-11-12-11-12-11-12-11-12-|
--------------------------------------------------------|
--------------------------------------------------------|
--------------------------------------------------------|

--------------------------------------------------------|
--------------------------------------------------------|
|-11-12-11-12-11-12-11-12-11-12~--------10--------------------------|
-------------------------12----13--10~---10-------------|
--------------------------------------10----------------|
--------------------------------------------------------|

--------------------------------------------------------|
--------------------------------------------------------|
-----------------------------10b-10b-12b--10------------|
|-12h13p12-13p12h13p12---12b--10--12--13----------------------------|
--------------------------------------------------------|
--------------------------------------------------------|

--------------------------------------------------------|
--------------------------------------------------------|
|-10p8/7h8p7/5h7p5/4h5p4---4h---------------------------------------|
-------------7---7-4h5---4h5p4h5p4h5p4h5p4h5p4h5p4h5p4--|
--------------------------------------------------------|
--------------------------------------------------------|

----------------------11p10p8h10h11p10p8h10h11p10p8h10--|
--------------------------------------------------------|
|-8p7h8p7h8p7h8p7h8p7h8p7h8p7h8p7-----------------------------------|
--------------------------------------------------------|
--------------------------------------------------------|
--------------------------------------------------------|

|-11h10--11-13-15-18---18b------------------------------------------|
--------------------------------------------------------|
--------------------------------------------------------|
--------------------------------------------------------|
--------------------------------------------------------|
--------------------------------------------------------|

Lyrics:

It is 1999
The human race has to face it
They are confronted with the truth
It´s secret -- mysterious

A surgeon said it in the news
The human race is dying
But the result is no disease
Searching for you

Metal heart -- metal heart
They found it everywhere
Metal heart -- metal heart
Lifeless piece of steel

The scaring fact was even told
Total confusion
They found the same nightmare
Heartbeats -- timebombs

Metal heart -- metal heart
Unplugged they´re dying
Metal heart -- metal heart
Unplugged they die

Metal heart -- metal heart
They found it everywhere
Metal heart -- metal heart
Lifeless piece of steel

Metal heart -- metal heart -- metal heart
Unplugged they´re dying
Metal heart -- metal heart

Log In to leave a comment

After registration we will return you to the same place
Comments
face-with-monocle
If you wait a bit, some comments may appear here...

Shhh...