Dimmu Borgir logo

Metal Heart Dimmu Borgir

  • 0
  • Share
  • Font Size
    15
Dimmu Borgir – Metal Heart
Intro
2x
E-||-------------------------------------------------------|
B-||-------------------------------------------------------|
G-||.-4---3--------------4-4--3----------------------------|
D-||.-------5-4-2---4-5---------5-4-2----------------------|
A-||-------------------------------------------------------|
E-||-------------------------------------------------------|

E-|--------------------------------------------------------|
B-|--------------------------------------------------------|
G-|---2----------------------4-4-4-3----------------------.|
D-|-4---5-4--2-1-2-4-5-2-------------5-4-2-4--------------.|
A-|--------------------------------------------------------|
E-|--------------------------------------------------------|

Second time play:
E-|--------------------------------------------------------|
B-|--------------------------------------------------------|
G-|---2----------------------4-4-4-3----------------------.|
D-|-4---5-4--2-1-2-4-5-2-------------5-4-2-2--------------.|
A-|--------------------------------------------------------|
E-|--------------------------------------------------------|

Log In to leave a comment

After registration we will return you to the same place
Comments
face-with-monocle
If you wait a bit, some comments may appear here...

Shhh...