Loading...
Dimmu Borgir logo

Blood Hunger Doctrine Dimmu Borgir

  • 0
  • Share
  • Transposing
    0
  • Font Size
Dimmu Borgir – Blood Hunger Doctrine
Artist: Dimmu Borgir
Song: Blood Hunger Doctrine (4:39)
Album: Death Cult Armegedon
Track: 6
Author: [email protected]
Tuning: Drop D
Version 1.0 - (2/15/04)

Comments: This is not 100% right but i haven't seen anyone else
tab this song out. send corrections to [email protected]

Key:
/ = Slide Up ~ = Let Ring
= Slide Down x = Pick Scrape
B = Hammer-on p = Pull-off
PM/ = Palm Mute

Intro:
fades in after 18 seconds
E|---------------------------------------------------------------------------|
B|---------------------------------------------------------------------------|
G|--7---7---7---7--5---5/--10---9/--12--7---7---7---7--5---5/--10---9--8|
D|----0---0---0---0---0---0-----0---0----0--0---0---0---0---0----0----0---0--|
A|---------------------------------------------------------------------------|
D|---------------------------------------------------------------------------|

(0:54)
E|--------------------|-----------------|
B|--------------------|-----------------|
G|--------------------|-----------------|
D|-0~----5~---3h4p2p1-|-0~---5~--3~--5~-|
A|-0~----5~---3h4p2p1-|-0~---5~--3~--5~-|
D|-0~----5~---3h4p2p1-|-0~---5~--3~--5~-|

Fill: (1:08)
E|----------------------------------------|
B|----------------------------------------|
G|----------------------------------------|
D|-0~-------------------------------------|
A|-0~--0-0-0-0---00-00-00---3-2-1-0-0-0---|
D|-0~--0-0-0-0---00-00-00---3-2-1-0-0-0---|
_____Palm Mute_________________/

Pre Verse: (1:15)
E|-------------------------|-----------------|
B|-------------------------|-----------------|
G|-------------------------|-----------------|
D|-0~---------5~---3h4p2p1-|-0~---5~--3~--5~-|
A|-0~00-000-0-5~---3h4p2p1-|-0~---5~--3~--5~-|
D|-0~00-000-0-5~---3h4p2p1-|-0~---5~--3~--5~-|
_______________Palm Mute______________/

Verse (1:52) (1:56)
E|-------------------|-------------|
B|-------------------|-------------|
G|-------------------|-------------|
D|-0-0---------------|-0-0---------|
A|-0-0---------------|-0-0---------|
D|-0-0---------------|-0-0---------|
PM/ [rest] PM/ [rest]

(1:59) ( mute every open string on this part)
E|-----------------------------|--------------------------|
B|-----------------------------|--------------------------|
G|-------------4--3--1--8--7---|--------------------------|
D|---------------0--0--0--0--0-|------------------4--3--2-|
A|-00-00-00-00-----------------|00-00-00-00-00-00---0--0--|
D|-00-00-00-00-----------------|00-00-00-00-00-00---------|
Palm_Mute/ ___Palm_Mute___/

(2:18) (2:22)
E|-------------------|-------------|
B|-------------------|-------------|
G|-------------------|-------------|
D|-0-0---------------|-0-0---------|
A|-0-0---------------|-0-0---------|
D|-0-0---------------|-0-0---------|
PM/ [rest] PM/ [rest]

(2:26) ( mute every open string on this part)
E|-----------------------------|--------------------------|
B|-----------------------------|--------------------------|
G|-------------4--3--1--8--7---|--------------------------|
D|---------------0--0--0--0--0-|------------------4--3--2-|
A|-00-00-00-00-----------------|00-00-00-00-00-00---0--0--|
D|-00-00-00-00-----------------|00-00-00-00-00-00---------|
Palm_Mute/ ___Palm_Mute___/

(2:44) (2:49)
E|----------------------|-------------|
B|----------------------|-------------|
G|----------------------|-------------|
D|-0-0------------------|-0-0---------|
A|-0-0--------x/xx-----|-0-0---------|
D|-0-0--------x/xx-----|-0-0---------|
PM/ PM/ [rest]

(2:52) ( mute every open string on this part)
E|-----------------------------|--------------------------|
B|-----------------------------|--------------------------|
G|-------------4--3--1--8--7---|--------------------------|
D|---------------0--0--0--0--0-|------------------4--3--2-|
A|-00-00-00-00-----------------|00-00-00-00-00-00---0--0--|
D|-00-00-00-00-----------------|00-00-00-00-00-00---------|
Palm_Mute/ ___Palm_Mute___/

(3:10) (3:13)
E|-------------------|----------------|
B|-------------------|----------------|
G|-------------------|----------------|
D|-0-0---------------|----------------|
A|-0-0---------------|----------------|
D|-0-0---------------|-4-3-2-1-0-1-0--|
PM/ [rest] Palm____Mute_/

(3:15)
E|-------------------|
B|-------------------|
G|-------------------|
D|-0-0---------------|
A|-0-0---------------|
D|-0-0---------------|
PM/ [rest]

(3:18) ( mute every open string on this part)
E|-----------------------------|--------------------------|
B|-----------------------------|--------------------------|
G|-------------4--3--1--8--7---|--------------------------|
D|---------------0--0--0--0--0-|------------------4--3--2-|
A|-00-00-00-00-----------------|00-00-00-00-00-00---0--0--|
D|-00-00-00-00-----------------|00-00-00-00-00-00---------|
Palm_Mute/ ___Palm_Mute___/

(3:36) (3:41)
E|-------------------|-------------|
B|-------------------|-------------|
G|-------------------|-------------|
D|-0-0---------------|-0-0---------|
A|-0-0---------------|-0-0---------|
D|-0-0---------------|-0-0---------|
PM/ [rest] PM/ [rest]

Fill: Outro: End:
(3:43) (3:44) (4:21)
E|-----|-------------------------|-----------------|
B|-----|-------------------------|-----------------|
G|-----|-------------------------|-----------------|
D|-----|-0~---------5~---3h4p2p1-|-0~---5~--3~--5~-|
A|-15-|-0~00-000-0-5~---3h4p2p1-|-0~---5~--3~--5~-|
D|-15-|-0~00-000-0-5~---3h4p2p1-|-0~---5~--3~--5~-|
_______________Palm Mute_______________/

Log In to leave a comment

After registration we will return you to the same place
Comments
face-with-monocle
If you wait a bit, some comments may appear here...

Shhh...