Diecast logo

In The Shadows Diecast

  • 0
  • Share
  • Font Size
    15
Diecast – In The Shadows
Band: DIECAST
Album:Day of Reckoning
Song: In The Shadows

Transcribed by:        Chris Humeniuk
Email: father_death_666&hotmail.com

Tuning:
Strings 1-5 - 1 step down
String    6 - 2 steps down

Keys:
  x  - mute
___ - palm mute
/  - slide
  h  - hammer-on
  p  - pull-off
 - N.B.
^#^ - P.B.

INTRO:
(Gtr 1)
|-----------------------|
|-----------------------|
|-----------------------|
|-0----1--3--4----3--1--|
|-0----1--1--4----3--1--|
|-0----1-(1)-4----3--1--| (4x)

(Gtr 2)
|----------------------------------------------
|----------------------------------------------
|-7----8--3--6----5--3--7----8--3--6----10--11-
|-x----x--x--x----x--x--x----x--x--x-----x---x-
|-5----6--1--4----3--1--5----6--1--4-----8---9-
|----------------------------------------------

-----------------------------------------------|
-----------------------------------------------|
-10----8--3--6----5--3--7----8--3--6----10--11-|
--x----x--x--x----x--x--x----x--x--x-----x---x-|
--8----6--1--4----3--1--5----6--1--4-----8---9-|
-----------------------------------------------|

VERSE:

|--------------------------------------------------|
|--------------------------------------------------|
|--------------------------------------------------|
|-0--0-------0--0-------0--0-----------------------|
|-0--0-------0--0-------0--0-----------------------| (Gtr 1 6x)
|-0--0--0000-0--0--0000-0--0--0000-7-5-4-0-2-0-1-0-| (Gtr 2 4x)
        ____       ____       ____________________

PRE-CHORUS:
(Gtr 1 & 2)
|------------------------------------------------------------------
|------------------------------------------------------------------
|------9-10--10-10--9-10-12-10-9/109------9-10--10-10--12-10-7-5--
|-0--0-7--8---8--8--7--8-10-8--7/-87-0--0-7--8---8--8--10--8-5-3--
|-0--0-7--8---8--8--7--8-10-8--7/-87-0--0-7--8---8--8--10--8-5-3--
|-0--0-7--8---8--8--7--8-10-8--7/-87-0--0-7--8---8--8--10--8-5-3--

(Gtr 1 & 2)
|------------------------------------------------------------------
|------------------------------------------------------------------
|------9-10--10-10--9-10-12-10-9/109------9-10--10-10--12-10-7-5--
|-0--0-7--8---8--8--7--8-10-8--7/-87-0--0-7--8---8--8--10--8-5-3--
|-0--0-7--8---8--8--7--8-10-8--7/-87-0--0-7--8---8--8--10--8-5-3--
|-0--0-7--8---8--8--7--8-10-8--7/-87-0--0-7--8---8--8--10--8-5-3--

(Gtr 1)
|------------------------------------------------------------------
|------------------------------------------------------------------
|------9-10--10-10--9-10-12-10-9/109------9-10--10-10--12-10-7-5--
|-0--0-7--8---8--8--7--8-10-8--7/-87-0--0-7--8---8--8--10--8-5-3--
|-0--0-7--8---8--8--7--8-10-8--7/-87-0--0-7--8---8--8--10--8-5-3--
|-0--0-7--8---8--8--7--8-10-8--7/-87-0--0-7--8---8--8--10--8-5-3--

(Gtr 2)
|------------------------------------------------------------------
|------------------------------------------------------------------
|------9-10---------9-10-12-10-9h10p9-7-----------------12-10-7-5--
|------------------------------------------------------------------
|------------------------------------------------------------------
|------------------------------------------------------------------

(Gtr 1)
|---------------------------------------------------------------------|
|---------------------------------------------------------------------|
|------9-10--10-10--9-10-12-10-9/109------9-10--10-10--12-10-7-------|
|-0--0-7--8---8--8--7--8-10-8--7/-87-0--0-7--8---8--8--10--8-5-3-7-5-|
|-0--0-7--8---8--8--7--8-10-8--7/-87-0--0-7--8---8--8--10--8-5-3-7-5-|
|-0--0-7--8---8--8--7--8-10-8--7/-87-0--0-7--8---8--8--10--8-5-3-7-5-|
                                     _____

(Gtr 2)
|---------------------------------------------------------------------|
|---------------------------------------------------------------------|
|------9-10---------9-10-12-10-9h10p9-7-----------------12-10-7-------|
|---------------------------------------------------------------3-7-5-|
|---------------------------------------------------------------3-7-5-|
|---------------------------------------------------------------3-7-5-|
                                     _____

CHORUS:

|--------------------------------------------------------------------------
|--------------------------------------------------------------------------
|-----------------------------------------------------------------------
|-0-0--0-0-0--0--0-0-0-0--0-0--0-0-0--0--0-0-0-0----0-0--0-0-0--0--0-0-0-0-
|-0-0--0-0-0--0--0-0-0-0--0-0--0-0-0--0--0-0-0-0----0-0--0-0-0--0--0-0-0-0-
|-0-0--0-0-0--0--0-0-0-0--0-0--0-0-0--0--0-0-0-0----0-0--0-0-0--0--0-0-0-0-

--------------------------------------------------------------------------
--------------------------------------------------------------------------

------------------------------^5^--0-0--0-0-0--0--0-0-0-0--0-0--0-0-0--0--
-----------------------------------0-0--0-0-0--0--0-0-0-0--0-0--0-0-0--0--
-0-7-5-4-0-2-0-1-0-7-5-4-0-2-0-----0-0--0-0-0--0--0-0-0-0--0-0--0-0-0--0--
  _____________________________

-----------------------------------------------------------------|
-----------------------------------------------------------------|
--------------------------------------------------------------|
-0-0-0-0----0-0--0-0-0--0--0-0-0-0-------------------------------|
-0-0-0-0----0-0--0-0-0--0--0-0-0-0---------------------------0-0-|
-0-0-0-0----0-0--0-0-0--0--0-0-0-0-0-7-5-4-0-2-0-1-0-7-5-4-0-0-0-|
                  _____________________________

PRE-CHORUS

INTRO

FILL:

|----------------------------|
|----------------------------|
|----------------------------|
|-0--0-----------------------|
|-0--0-----------------------|
|-0--0--0000-7-5-4-0-2-0-1-0-|
        ____________________

VERSE (4x)

VERSE VARIATION:

|-------------------------------------------------------------------
|-------------------------------------------------------------------
|-------------------------------------------------------------------
|-0--0-------0--0-------0--0----------------------0--0-------0--0---
|-0--0-------0--0-------0--0----------------------0--0-------0--0---
|-0--0-------0--0-------0--0--0-0-7-5-4-0-2-0-1-0-0--0-------0--0---
                     ___________________

                     |        7x       |
-----------------------------|-----------------|---|
-----------------------------|-----------------|---|
-----------------------------|-----------------|---|
---0--0----------------------|-----------------|-0-|
---0--0----------------------|-----------------|-0-|
---0--0--0-0-7-5-4-0-2-0-1-0-|-7-5-4-0-2-0-1-0-|-0-|
          ___________________   _______________

PAUSE

OUTRO CHORUS:

|--------------------------------------------------------------------------
|--------------------------------------------------------------------------
|-----------------------------------------------------------------------
|-0-0--0-0-0--0--0-0-0-0--0-0--0-0-0--0--0-0-0-0----0-0--0-0-0--0--0-0-0-0-
|-0-0--0-0-0--0--0-0-0-0--0-0--0-0-0--0--0-0-0-0----0-0--0-0-0--0--0-0-0-0-
|-0-0--0-0-0--0--0-0-0-0--0-0--0-0-0--0--0-0-0-0----0-0--0-0-0--0--0-0-0-0-

--------------------------------------------------------------------------
--------------------------------------------------------------------------

------------------------------^5^--0-0--0-0-0--0--0-0-0-0--0-0--0-0-0--0--
-----------------------------------0-0--0-0-0--0--0-0-0-0--0-0--0-0-0--0--
-0-7-5-4-0-2-0-1-0-7-5-4-0-2-0-----0-0--0-0-0--0--0-0-0-0--0-0--0-0-0--0--
  _____________________________

---------------------------------------------------------------------
---------------------------------------------------------------------

-0-0-0-0----0-0--0-0-0--0--0-0-0-0------------------------------^5^--
-0-0-0-0----0-0--0-0-0--0--0-0-0-0-----------------------------------
-0-0-0-0----0-0--0-0-0--0--0-0-0-0-0-7-5-4-0-2-0-1-0-7-5-4-0-2-0-----
                  _____________________________

--------------------------------------------------------------------------
--------------------------------------------------------------------------

-0-0--0-0-0--0--0-0-0-0--0-0--0-0-0--0--0-0-0-0----0-0--0-0-0--0--0-0-0-0-
-0-0--0-0-0--0--0-0-0-0--0-0--0-0-0--0--0-0-0-0----0-0--0-0-0--0--0-0-0-0-
-0-0--0-0-0--0--0-0-0-0--0-0--0-0-0--0--0-0-0-0----0-0--0-0-0--0--0-0-0-0-

-------------------------------|
-------------------------------|
-------------------------------|
-------------------------------|
---------------------------0-0-|
-0-7-5-4-0-2-0-1-0-7-5-4-0-0-0-|
  _____________________________

Log In to leave a comment

After registration we will return you to the same place
Comments
face-with-monocle
If you wait a bit, some comments may appear here...

Shhh...