Loading...
Дидюля Валерий logo

Фламенко Дидюля Валерий

  • 0
  • Share
  • Transposing
    0
  • Font Size
Вступление:

E--5-7---10-10-10--10-8-7-8-7-5-7-5-4---5-4----
B-------------------------------6-5-3-2--------
G---------------------------------------3-2-0--
D----------------------------------------------
A----------------------------------------------
E----0-----------------------------------------

E|-----0----------0----------0----------0------0-
B|-------0----------0----------0----------0----0-
G|---1-----1----2-----2----1-----1----2-----2--1-
D|--2----------3----------2----------3---------2-
A|-2----------3----------2----------3----------2-
E|---------------------------------0-------------

Основной проигрыш:
E|-12/5-4-5p4p0-0-------------------------0-1-4-0h1p0-
H-----0-------------0-1-0h1p0-------------0-4-5-4-5---
G-------2-1-----1-2-----------------------------------
D-----------2-3---------------------------------------
A-----------------------------------------------------
E-----------------------------------------------------

Далее боем "восьмеркой" с приглушением такие аккорды:
E x2 Am(V) G(III) F E

Снова основной проигрыш

Потом Дидюля обыгрывает аккорды:
Am(V) G(III) F E

Хитрым переборчиком и снова возвращается
К основному проигрышу под который вторая
Гитара играет самый обыкновенный аккорд E

Log In to leave a comment

After registration we will return you to the same place
Comments
face-with-monocle
If you wait a bit, some comments may appear here...

Shhh...

Most Popular