• 0
  • Share
  • Font Size
Descendents – M16
Band: Descendents
Song: M16
Album: Milo Goes To College
Tabbed By: LifeBandit (E-Mail: [email protected])

Kinda fast and really nice to play. I think its 100% correct actually.
First tab I`ve done straight off my own back, no assistance.
I`ve not seen it tabbed before so I decided to give it a whirl.

Intro
G|-------------------------------
D|-------------5------------5----
A|-7-7-7-5-7-7----7-7-7-5-7---7--
E|-------------------------------

Verse 1 X3
G|-----------------|-------------------|
D|--------------9*|-------------------|
A|*777777777-888--*|---------5---5-8---|
E|-----------------|-5-5-7-7---7-----7-|

Chorus 1
G|----------------|-----------------|----------------|
D|-------------5>-|-----------5-----|----------------|
A|-7-7-7-7-7-7----|-7-7-7-7-7---7-r-|-------------5>-|
E|----------------|-----------------|-7-7-7-7-7-7----|

G|-----------------|-----------------|-------------|
D|-----------------|-----------------|-------------|
A|-----------5-----|---------7-7-7-7-|---------5---|
E|-7-7-7-7-7---7-r-|-7-7-7-7---------|-7-7-7-4---7-|

2nd Verse X2
G|-----------------|-----------------|-------------------|
D|---------------*|-------------9---|-------------------|
A|*77777777-888---*|77777777-888-----|---------5---5-8---|
E|--------------7--|-----------------|-5-5-7-7---7-----7-|

2nd Chorus (1 note change again)

G|----------------|-----------------|----------------|
D|-------------5>-|-----------5-----|----------------|
A|-7-7-7-7-7-7----|-7-7-7-7-7---7-r-|-------------5>-|
E|----------------|-----------------|-7-7-7-7-7-7----|

G|-----------------|-----------------|-------------|
D|-----------------|-----------------|-------------|
A|-----------5-----|---------7-7-7-7-|---------5-7-|
E|-7-7-7-7-7---7-r-|-7-7-7-7---------|-7-7-7-4-----|

Outro: Last 2 note repeated. Listen to the song.

Enjoy!

You can post this on any site without asking me 1st as long as my name is included.
Any Queries or changes E-mail me.

Log In to leave a comment

After registration we will return you to the same place
Comments
face-with-monocle
If you wait a bit, some comments may appear here...

Shhh...

Versions

Most Popular
You Might Like