• 0
  • Share
  • Font Size
Descendents – Lucky
Song: Lucky
Band: Descendents
Tabbed by: darbyCRASH ([email protected])

Yet another AMAZING tune from Karl Alveraz..

(guitar only, then intro)
G---------------------------------------------------------|
D-12/555555-----------------------------54----------------|
A----------77-555555--333333-333333/7>----75--5----5-5555-|
E-----------------------------------------------320-------|

(verse)
G--------------------------------------------------------------|
D----------------------------------------------------545754----|
A---------------5-555555-5-------------------5-55555-------753-|
E-3-333330000000-----------02--3-333330-00000------------------|

(first time only variation)
G-----------0-20-20-----4-9----------------------55555--9-7-57-|
D----------2-------2--2---------9------------------------------|
A-233233---------------------------22-3-33333-5--------------|
E--------------------0------7-0---55---------------------------|

(regular second half of verse)
G-----------0-20-20------------------------------55555--9-7-57-|
D----------2-------2--2---2------------------------------------|
A-233233--------------3---3---3----22-3-33333-5--------------|
E--------------------0--------0---55---------------------------|

(chorus)
G--------------------------------------------------------------------|
D-12/5555----------------------------5555----------------------------|
A--------775-55555-3-333333-3333336-----775-55555-3-333333-3333337-|
E--------------------------------------------------------------------|

G----------------------|
D----54----------------|
A-7>---75--5----5-5555-|
E-----------320--------|

Repeat verse once

(bridge)
G----------------------------------------------------------9-7-57-|
D---------9-9-9-9-------------------------------------------------|
A-9-9-9-9---------3-33333-3-333333-2-2-2-2-3-3-3-3-5-55555--------|
E-----------------------------------------------------------------|

(solo same as verse)

(alternate chorus) x2
G--------------------------------------------------------------|
D-5555----------------------------5555-------------------------|
A-----775-55555-3-333333-3333336-----775-55555-3-03-03-555520-|
E--------------------------------------------------------------|

(outro)
G----------------|
D----54----------|
A-7>---75--5---5-|
E-----------320--|

Have fun with this one..

Log In to leave a comment

After registration we will return you to the same place
Comments
face-with-monocle
If you wait a bit, some comments may appear here...

Shhh...

Versions

Most Popular
You Might Like