Deicide logo

Behead The Prophet No Lord Shall Live Deicide

  • 0
  • Share
  • Font Size
    15
Deicide – Behead The Prophet No Lord Shall Live
Song: Behead the Prophet (No Lord Shall Live)
Artist: Deicide
Album: Legion (1992)

Tabbed by Chris Rezendes (dudemcrude@yahoo.com)

Tuning: Standard

Notation Key
V: vibrato
T: tremolo bar
^: bend
.: palm mute
~: trill
P: pull-off
B: hammer-on
X: ghost note
/: slide up
: slide down

Fill 1 x1
E|---------|
B|---------|
G|---------|
D|---------|
A|------3--|
E|--000-1--|

Fig. 1 x1
E|---------------------------------------------|
B|---------------------------------------------|
G|---------------------------------------------|
D|---------------------------------------------|
A|------3-2-----4-3-6-5------------------------|
E|--000-1-0-000-2-1-4-3-000-6-3-5-2-4-1-000-3--|

Repeat Fill 1 x1
Repeat Fig. 1 x4

Fill 2 x1
E|-----------------|
B|-----------------|
G|-----------------|
D|-----------------|
A|--------------3--|
E|--1-0-1-0-1-0-1--|

Repeat Fig. 1 x4

Fill 3 x1
E|-----------------|
B|-----------------|
G|-----------------|
D|--------------3--|
A|--------------1--|
E|--1-0-1-0-1-0----|

Repeat Fig. 1 x4
Repeat Fill 2 x1

Riff 1 x2
E|-------------------------|-----------------------|-------------------|
B|-------------------------|-----------------------|-------------------|
G|-------------------------|-----------------------|-------------------|
D|-------------------------|-----------------------|-------------------|
A|----------------------3--|------3-------------1--|------3---------2--|
E|--000-000-000-000-1-2----|--222---222-000-1-2----|--222---222-000-0--|

E|---------------------------------------|
B|---------------------------------------|
G|---------------------------------------|
D|----------------3-2--------------------|
A|---------------------------------------|
E|--000-000-1-2-0-----0-444-444-222-222--|

Riff 2 x1
E|-------------------------|-------------------------|
B|-------------------------|-------------------------|
G|-------------------------|-------------------------|
D|-------------------------|----------------------3--|
A|----------------------3--|------3---------3-----1--|
E|--000-000-000-000-1-2----|--222---222-000-1-000----|

Repeat Fig. 1 x4
Repeat Fill 2 x1

Riff 3 x1
E|---------------------------------------|-------------------------|
B|---------------------------------------|-------------------------|
G|---------------------------------------|-------------------------|
D|----------------3-2--------------------|-------------------------|
A|---------------------------------------|----------------------3--|
E|--000-000-1-2-0-----0-444-444-222-222--|--000-000-000-000-1-2----|

E|-----------------------|-------------------|
B|-----------------------|-------------------|
G|-----------------------|-------------------|
D|-----------------------|-------------------|
A|------3-------------1--|------3---------4--|
E|--222---222-000-1-2----|--222---222-000-2--|

Fig. 2 x12
E|---------------------------------|
B|---------------------------------|
G|---------------------------------|
D|---------------------------------|
A|--1-------3-1-----1-----3--------|
E|----2-2-2-----2-2---2-2---0-1-2--|
      . . .     . .   . .   . . .

Riff 4 x4
E|-------------------------------------|
B|-------------------------------------|
G|-------------------------------------|
D|----------------------------------3--|
A|--111-222---------333-111---------1--|
E|----------111-000---------000-000----|

Repeat Fill 3 x1
Repeat Fig. 1 x4
Repeat Fig. 2 x12
Repeat Riff 4 x8
Repeat Fill 1 x1
Repeat Fig. 1 x1

Log In to leave a comment

After registration we will return you to the same place
Comments
face-with-monocle
If you wait a bit, some comments may appear here...

Shhh...