Loading...
Deftones logo

Damone Deftones

  • 0
  • Share
  • Font Size
Deftones – Damone
Damone
Deftones
Around The Fur
Tabbed By James Copley ( [email protected] )

Intro (riff a) each note 16 times
G|------------------------------------------------------------------------------

D|------------------------------------------------------------------------------

A|------------------------------------------------------------------------------

D|-11-11-11-11-11-11-11-11-11-11-11-11-11-11-11-11-11-/-12-12-12-12-12-12-12-12-

G|-------------------------------------------------------------------------------------------

D|-------------------------------------------------------------------------------------------

A|-------------------------------------------------------------------------------------------

D|-12-12-12-12-12-12-12-12-7-7-7-7-7-7-7-7-7-7-7-7-7-7-7-7-/-8-8-8-8-8-8-8-8-8-8-8-8-8-8-8-8-

Verse (there is no bass in verse but if you want, you vcan
Follow the guitar like this..
G|---------------------
D|---------------------
A|---------------------
D|-0-0--0-0-0--0-0-0-0- follow guitar after it hits the high
Note.

Chorus thingy after verse
G|-------------------------------------------------------------------

D|-------------------------------------------------------------------

A|-------------------------------------------------------------------

D|-7-7-7-7-7-7-7-7-7-7-7-7-7-7-7-7-/-8-8-8-8-8-8-8-8-8-8-8-8-8-8-8-8-

Play that a couple of times, then this...

G|-------------------------------------------------------------------------------------

D|-------------------------------------------------------------------------------------

A|-------------------------------------------------------------------------------------

D|-7-7-7-7-7-7-7-7-7-7-7-7-7-7-7-7-/-8-8-8-8-8-8-8-8-8-8-8-8-8-8-8-8-/-9-9-9-9-9-9-9-9-

Then slide up to 11 and start riff A (intro) to finish up the
Chorus.

I was listening to this on my little tape player instead of my
C.d. just now so, I'm not sure if
There is bass in this part, but if there is, this is how you
Play it...

G|--------------
D|--------------
A|--------------
D|-11--0--11--0-
^ ^
Bend up

Log In to leave a comment

After registration we will return you to the same place
Comments
face-with-monocle
If you wait a bit, some comments may appear here...

Shhh...