Loading...
Default logo

Slow Me Down Default

  • 0
  • Share
  • Transposing
    0
  • Font Size
Default - Slow Me Down
Tabbed By: tza
EMail: [email protected]
The Fallout

Drop D:
D A D G B E

( ) = harmonics

Intro: Fig. 1

E------------------------------------------
B------------------------------------------
G-7-------7---7-----7---7-----7---7--7--7--
D-4-------5---5-----4---4-----5---7--5--7-- x4
A-5-------5---5-----5---5-----5---5--5--5--
D------0---------0---------0---------------

Verses: Fig. 1 x8

...Hold on...

E-----------------------------------------------------------------
B-----------------------------------------------------------------
G-----------------------------------------------------------------
D-10------12--12-10--10-12---12-10------12--12-10---10-12-12-10---
A-10------10--10-10--10-10---10-10------10--10-10---10-10-10-10-0-
D-10---10-10--10-10--10-10---10-10---10-10--10-10---10-10-10-10-0-

E-----------------------------------------------------------------
B-----------------------------------------------------------------
G-7------7--7---7--7-----7--7-7-7--7------7--7-----7--------------
D-4------5--5---4--4-----5--7-5-7--4------5--5-----4--------------
A-5------5--5---5--5-----5--5-5-5--5------5--5-----5--------------
D-----0-------0-------0----------------0--------0----------(4)(4)-

Chrous:

Gtr. 1

E-----------------------------------------------------------------
B-----------------------------------------------------------------
G-----------------------------------------------------------------
D-----------------------------------------------------------------
A--------------5~~~~-------5~~-(5)--------------5~~~~-------5-----
D----5-4-0-4-5-------0---0------------5-4-0-4-5-------0---0-------

Gtr. 2

E-----------------------------------------------------------------
B-----------------------------------------------------------------
G-----------------------------------------------------------------
D-----------------------------------------------------------------
A--------------5~~~~-------5~~------------------5~~~~-------5-----
D----5-4-0-4-5-------0---0-----(5)----5-4-0-4-5-------0---0-------

Gtr. 1

E-----------------------------------------------------------------
B-----------------------------------------------------------------
G-----------------------------------------------------------------
D-----------------------------------------------------------------
A--------------5~~~~-------5~~---(5)------------5~~~~--------5---5
D----5-4-0-4-5-------0---0-----0------5-4-0-4-5-------0---0-------

Gtr. 2

E-----------------------------------------------------------------
B-----------------------------------------------------------------
G-----------------------------------------------------------------
D-----------------------------------------------------------------
A--------------5~~~~-------5~~------------------5~~~~--------5---5
D----5-4-0-4-5-------0---0-----(5)----5-4-0-4-5-------0---0-------

Gtr. 1&2

E-----------------------------------------------------------------
B-----------------------------------------------------------------
G-4-4--4---4-4--4---4-4--4---4-4-4-5---5-5---5-5--5---5-5--5------
D-4-4--4---4-4--4---4-4--4---4-4-4-5---5-5---5-5--5---5-5--5------
A-2-2--2---2-2--2---2-2--2---2-2-2-3---3-3---3-3--3---3-3--3------
D-------------------------------------------------------------0-0-

Bridge: Play Riff

Interlude:

E-----------------------------------------------------------------
B-----------------------------------------------------------------
G-----------------------------------------------------------------
D-------------4---------------4---------------4-3----5----5----0--
A---------------5---------------3---------------3----5----5----0--
D---5-4-0-4-5-------5-4-0-4-5-------5-4-0-4-5---3----5----5----0--

E-----------------------------------------------------------------
B-----------------------------------------------------------------
G-----------------------------------------------------------------
D-------------4---------------4---------------4-3----5----5----3--
A---------------5---------------3---------------3----5----5----3--
D---5-4-0-4-5-------5-4-0-4-5-------5-4-0-4-5---3----5----5----3--

E-----------------------------------------------------------------
B-----------------------------------------------------------------
G-----------------------------------------------------------------
D---3----5----5---------------------------------------------------
A---3----5----5---------------------------------------------------
D---3----5----5---------------------------------------------------

Outro Bar:

E-----------------------------------------------------------------
B-----------------------------------------------------------------
G-4---4---4---4---4---4---4---4---5---5---5---5---5---5-----------
D-4---4---4---4---4---4---4---4---5---5---5---5---5---5-----------
A-2---2---2---2---2---2---2---2---3---3---3---3---3---3-------5---
D-------------------------------------------------------0-4-5---0-

That’s all

Trevor jones
[email protected]

Log In to leave a comment

After registration we will return you to the same place
Comments
face-with-monocle
If you wait a bit, some comments may appear here...

Shhh...

Most Popular
You Might Like