Loading...
Def Leppard logo

Too late for love Def Leppard

  • 0
  • Share
  • Transposing
    0
  • Font Size
From: [email protected] ()

Too Late for Love
By Def Leppard
Off the album, Pyromania

Transcribed by Rob Schenk
[email protected]

Intro
------------------------------------------------
------------------------------------------------

---------2-----4--------5---4------2----2-------
-----2h3---3/5------3/5---5------3---3--2-------
-0--------------------------------------0-------

Verse
----------------------------------------
----------------------------------------

------2--4----5--4-----2----------------
------3--5----5--5-----3----------------
-0-----------------------0-0------------

Chorus
--------------------------------------------
--------------------------------------------

-------2-2-4-4----5-5-4-4-----2-3---------5--
-------3-3-5-5----5-5-5-5-----3-3---------5v-
-0-0------------------------------0-0------

Interlude
-------------------------------------------------

--------9-------7-----5------2-----4-----5-----5-
-------10-------9-----7------3-----3-----3-----5v-
-0-0-0-----0-0----0-0---0--0---0-0---0-0---0-0---
-------------------------------------------------

Solo rhythm
----------------------------------------
----------------------------------------

-------2-2-4-4----5-5-4-4----2-2--------
-------3-3-5-5----5-5-5-5----3-3--------
-0-0-----------------------------0-0----

Interlude

------------------------------------------

------4-----------------------------------
-2-2-----5-4-4br-0------5-5--5-0-4-4br--4--
-2-2----------------0-2-3-3-------------2--
-0-0---------------------------------------

-----------------------------------------------

------4----------------------------------------
-2-2----5-4-4br-0--------5-5---4b-----4---4/---
-2-2----------------0-2--3-3------3/2-----2/---
-0-0-------------------------------------------

--------------------------------------------------

------4-------------------------------------------
-2-2----5-4-4br-0--------5-5-----7---7--7/9-9-9-9-
-2-2----------------0-2--3-3---4---5----5/7-7-7-7-
-0-0----------------------------------------------

-----------------------------------------
-----------------------------------------

------------5/4------5-------7-----------
-9-7/-2-2---3/2--0-2-3---5---5--7--------
------0-0----------------3------5--------

Solo

--------------15------------------------------------------
-14b-14bv-14b----14br-12h14---14/11-12-12/14-12-11h12p11--
----------------------------------------------------------
----------------------------------------------------------
----------------------------------------------------------

------------------------------------------------------12-------------
--------------3------------------------------------12----------------
--------0-2/4---4/2-0-----2v----------12-12b----12-------------------
-12/0h2---------------0h2-------12/14--------14------------12v-14/17-
---------------------------------------------------------------------
---------------------------------------------------------------------

-15-------19/12-15-15/17-15-12----12--------------------15----------------------
----14/16----------------------12----------------12-14b----14b-14-12-14-12------
-------------------------------------14----12h14---------------------------14---

-----------------------------------------------------------------------------12/

Too Late For Love
by Def Leppard
From Pyromainia

First riff

--------------------------------------------------------------------
--------------------------------------------------------------------

---------------2--------4--------------5-----4-----------2----------
-----------2>3-----3>5------------3>5-----5-----------3------3------
----0-----------------------------------------------------------0---

Play riff once than play over verse till chord markers.

Somwhere in the distance, I here the bell ring,

Darkness settles on the town, as the children start to sing

And the lady across the street , she shuts out the night,

A cast on thousands waiting, as she turns out the light but it's

Too late, too late, too late, too late for love,

Too late, too late, too late too late....

Em C D Dsus4
London boys are gazing, as girls Go hand in hand
D C Em
With a pocketful of innocence, the entrance is grand
Em C D Dsus4
The queen of the dream, stand before them all
D C Em
She streaches out her hand as the curtain starts to fall, but it's
Em C D Dsus4 D C Em
Too late, too late, too late , too late for love
Em C D Dsus4 D C Em
Too late, too late, it's too late, too late!

(fill)

A5 C5A5 C5A5 C5A5 C5
/ / / / / / / / / / / / / / / / / / / / / / / / / / / / / / / /

(solo)

----12---12----12-15-12-12---------------------------------------------------
----------------------------14----12-14------11--12--14--12--11>12--11------
-------------------------------------------------------------------------12--
-----------------------------------------------------------------------------
-----------------------------------------------------------------------------

-----------------------------------------------------------12-------------
------------------------------------------12---12-------------------/12---
---12-------------------------------/14--------------14--------14---------
-------15---14---14>12----------------------------------------------------
-------------------------15---12------------------------------------------

----------------14-----------12-------------------------
-----15-----12-------12--15------15--12-------12--------
------------------------------------------14------------
---------------------------------------------------14---
--------------------------------------------------------
--------------------------------------------------------

---------------12-------12-----------------------
---------12>14-----14-------14---12--14>12-------
----14--------------------------------------14---
-------------------------------------------------
-------------------------------------------------

(outro)
-------------------------------------------------------
-------------------------------------------------------

----9--------------------------------------------------
-------10--9--9>10>9-----------10-------9---9>10>9-----
----------------------10-----------10----------------7-

-----------------------------------------------------
-----------------------------------------------------

---9-------------------------------------------------
------10--9--9>10>9--------9>10>9---------9----------
---------------------10------------8---7---------7---

------------------------------------------------------------0--0--
------------------------------------7---8-------------------0--0--
--------------------------------------7-----7--7>9--9--9----0--2--
--9-----------------------------------------7--7>9--9--9----2--2--
---------10---9---9>10>9------------------------------------2--2--
---------------------------10-------------------------------0--0--

-------------------------

---4---5-------7---------
---4---5---5---7-----7---
-----------5---------7---
-------------------------

Log In to leave a comment

After registration we will return you to the same place
Comments
face-with-monocle
If you wait a bit, some comments may appear here...

Shhh...

Versions

Most Popular
You Might Like