Loading...
Dead Kennedys logo

When Ya Get Drafted Dead Kennedys

  • 0
  • Share
  • Transposing
    0
  • Font Size
Band:Dead Kennedys
Song:When Ya Get Drafted
Tabbed by oppressor

1st part x2 2nd part x1
E----------------------- ----------------------------
B----------------------- ----------------------------
G----------------9999--- ----------12111111111111---
D---1111-99-1111-9999--- ---999999-12111111111111---
A---1111-99-1111-7777--- ---999999-10-9-9-9-9-9-9---
E----9-9-77--9-9-------- ---777777-------------------

3rd part x2
E--------------------------------------------
B--------------------------------------------
G----------------------12111111-12111111---
D-999999-444444-777777-12111111-12111111---
A-999999-444444-777777-10-9-9-9-10-9-9-9---
E-777777-222222-555555-----------------------

4th part x1
E-------------------------------
B-------------------------------
G-------------------------------
D-999999-444444-777777-222222---
A-999999-444444-777777-222222---
E-777777-222222-555555-000000---

5th part x1
E----------------------------------
B----------------------------------
G---------------------6666666666---
D-999999-444444-77777-6666666666---
A-999999-444444-77777-4444444444---
E-777777-222222-55555--------------

6th part x2
E--------------------------------------
B--------------------------------------
G--------------------------------------
D--------------------------------------
A--------------------------------------
E---2-2-3-0--2-2-3-0--2-2-3-0-222222---

1st part x2
3rd part x2
4th part x1
5th part x1
6th part x2

7th part x1
E--------------------------------------
B--------------------------------------
G--------------------------------------
D--------------------------------------
A---2-2-3-0--2-2-3-0--2-2-3-0-222222---
E--------------------------------------

8th part x1
E-------------------------------
B-------------------------------
G-------------------------------
D-------------------------------
A-------------------------------
E---2-2-3-0--2-2-3-0--2-2-3-0---

Solo:
E------15~14~---13~---12~------15~14~---13~---12~---
B---12~------15~---14~---13~12~------15~---14~------
G---------------------------------------------------
D---------------------------------------------------
A---------------------------------------------------
E---------------------------------------------------

E------19~18~---17~---16~------19~18~---17~---191919191919---
B---17~------19~---18~---18~17~------19~---18~181818181818---
G------------------------------------------------------------
D------------------------------------------------------------
A------------------------------------------------------------
E------------------------------------------------------------

6th part x1
8th part x1

Outro:
E----------------
B----------------
G----------------
D----------------
A---4-4444-4-4---
E---2-2222-2-2---

Very fast and easy to play and I am sure it is 100% accurate.
Any questions or comments email me at [email protected]
If you have any time please rate my tab.

Log In to leave a comment

After registration we will return you to the same place
Comments
face-with-monocle
If you wait a bit, some comments may appear here...

Shhh...