Dead Kennedys logo

A Child And His Lawnmower Dead Kennedys

  • 0
  • Share
  • Font Size
Dead Kennedys – A Child And His Lawnmower
Intro..
Attach this to the child and his lawnmower thing I sent yesterday...

Intro:[хe--------------------------------------------------------------------
B---8-8-8-3-3-3--------------8-8-8-3-3-3-------------8-8-8-3-3-3-----
G---7-7-7-2-2-2-5-5-5-7-7-7--7-7-7-2-2-2-5-5-5-7-7-7-7-7-7-2-2-2--4--
D---5-5-5-0-0-0-5-5-5-7-7-7--5-5-5-0-0-0-5-5-5-7-7-7-5-5-5-0-0-0--4--
A---------------3-3-3-5-5-5--------------3-3-3-5-5-5--------------2--
E--------------------------------------------------------------------]
Verse...
[e------------------------------
B--5-5-7-7-5-5-7-7-5-5-7-7-7-7-
G--6-6-8-8-6-6-8-8-6-6-8-8-7-7-
D--7-7-9-9-7-7-9-9-7-7-9-9-7-7- } repeat this a bit...
A--7-7-9-9-7-7-9-9-7-7-9-9-----
E------------------------------]
Chorus...
[e------------------------------------
B--5-5-7-7-5-5-7-7-3-3-5-5-3-3-5-5---
G--6-6-7-7-6-6-7-7-4-4-5-5-4-4-5-5---
D--7-7-7-7-7-7-7-7-5-5-5-5-5-5-5-5---
A--7-7-----7-7-----6-6-----6-6-------
E------------------------------------]
Thats it... the Intro is already on this nevada guitar thing... but I
Think you might want to play around with it a bit cause it doesn't seem
To sound quite right to me... but maybe I'm just screwing the rythem up
Or something...

-

Someone somewhere once upon a time mentioned the DKs, well here it is the Intro
To "a child and his lawnmower" off "Give me convenience or..." and probably some
B-side as well. A fun song to play, (aren't they all) for the rest just thrash
Wildly in whatever seems right, I did this live and it worked. The Intro is
Usually bass but fun on the guitar too. Here we go...
[A------3-3-0-------------0--------0-----
E-------------3-3-0----1---3----3---3---] } Repeat a few times.
Go listen and you'll get the idea. If you are a DK fan and you don't have this
Album then go find it. It absolutely rules even more than Dangermouse.

-

Перевод:Парень и его газонокосилка
(Слова - Биафра)

Какой-то клоун в Сакраменто попал под суд.
Он застрелил свою газонокосилку,
Она не подчинялась, она не заводилась.
Кто сильнее, тот и прав, это - Американский путь.
Его оштрафовали на 60 баксов и отправили на фиг.

Понимаешь, некоторым на все насрать,
Может быть их что-то бы волновало, если б осталась хоть половина
Мозгов } х3

Log In to leave a comment

After registration we will return you to the same place
Comments
face-with-monocle
If you wait a bit, some comments may appear here...

Shhh...