Loading...
David Gray logo

Babylon David Gray

  • 0
  • Share
  • Transposing
    0
  • Font Size
David Gray – Babylon
Babylon 2 ( with acoustic intro) - David Gray
Tabbed by Scott Brabson

Alright, here's my second tab, though I'm sure it's pretty darn accurate. I've seen a
Lot of tabbings for this song, but none for the opening and few with the proper riff for
The verse.

Make sure to CAPO 1ST FRET

Intro:
( D) ( D) ( A) ( A)
E|--2---2-----------2-------2--------------------------------------
B|--3---3---------------3----------2----2------------2------3----
G|--2---2---0h2------------------2----2----------------2--------
D|-----------------------------------2----2----0h2----------------
A|---------------------------------------------------------------------
E|---------------------------------------------------------------------
( Em) ( Em)
E|----------------------------------------------------------------------
B|-------------------------------------------------0-------------------
G|------------------------------------------------------2--------------
D|---2------2-----------0--------------------0------------0---------
A|---2------2-----0h2-----2--0---------2--------------------------
E|-----------------------------------2--0------------------------------
Verse:
E|----------------------------------------------------------------
B|-------2h3p2------------3--0--3--3-----------------------
G|-------2-------------------2---------2-----------------------
D|-------------------0------------------------------------------
A|----------------------------------------------------------------
E|---2-------------------3---------------------------------------
Chorus:
The chorus is different in that it doesn't have any individual picking, rather, a soft
Strum of these chords:

D, A, Em, A (progression 1)
D, A, Em, G (progression 2)

Progression 2 follows number 1 and continues in this patter until returning to the verse.

That's pretty much it, the verse riff is accurate for the most part, though it was kind of
Tough to pick out the little muddled picking. E-mail me with questions/comments at
[email protected] Hope this helped out and God bless.

In Our Glorious God's Service,
Scotty B

Log In to leave a comment

After registration we will return you to the same place
Comments
face-with-monocle
If you wait a bit, some comments may appear here...

Shhh...