Loading...
Dave Matthews Band logo

Warehouse Acoustic Dave Matthews Band

  • 0
  • Share
  • Transposing
    0
  • Font Size
This is one way dave plays warehouse... that is, back in the day.  This
Was partially based on a rare video of a 1993 solo performance by dave in a charlotte
Record store. enjoy.

I havent included all the muting, but because he is strumming, virtually
Everything that isnt freted is muted.

Intro/(between chorus and verses):

E-------------------------------------x-------------------------|
B------------------x--x--x--x--x--x--xx-------------------------|
G--------------x---7--7--7--7--7--7--7x-------------------------|
D--------x--x--11--------9--9--9--9--xx-------------------------|
A--x--x--9--9--9--------------10-10--9x-------------------------|
E--7--7--7--7--7----------------------x-------------------------|
^
(p.m.)
E---------------------------------------------------------------|
B------------------x--x--x--x--x--x--x--x-----------------------|
G--------------x---7--7--7--7--7--7--7--7-----------------------|
D--------x--x--11--------9--9--9--9--x--x--x-------repeat-------|
A--x--x--9--9--9--------------10-10--9--9--7--------------------|
E--7--7--7--7--7---------------------------x--------------------|

Verse:

E-------------------------------------x------------------------|
B------------------x--x--x--x--x--x--xx------------------------|
G--------------x---7--7--7--7--7--7--7x------------------------|
D--------x--x--11--------9--9--9--9--9x-------repeat-----------|
A--x--x--9--9--9--------------10-10-10x------------------------|
E--7--7--7--7--7----------------------x------------------------|
^
(p.m.)
Chorus:

E-------------------------------|
B-------------------------------|
G-------------------------------|
D--7-x-7-7-7--7-x-7-7-7---------|repeat
A--x-x-5-5-5--x-x-5-5-5---------|
E--5-x-x-x-x--3-x-x-x-x---------|
-listen to live version for rhythm here

Bridge:

E-----------------------------------------------|
B-----------------------------------------------|
G-----------------------------------------------|
D--9--9--9--9-11-11--9--9----repeat-3x----5---7-|
A--x--x--7--7--9--9--7--7-----------------x---x-|
E--7--7--x--x--x--x--x--x-----------------3---5-|
-listen for rhythm and strumming pattern here

Ending:

E-------------------------------------x------------------x--x--x--x--x--x--x--|
B------------------x--x--x--x--x--x--xx------------------3--3--3--3--3--3--3--|
G--------------x---7--7--7--7--7--7--7x--------------x---x--x--4--4--4--4--x--|
D--------x--x--11--------9--9--9--9--xx--------x--x-11---------x--x--5--5--4--|
A--x--x--9--9--9--------------10-10--9x--x--x--9--9--9---------------x--x--x--|
E--7--7--7--7--7----------------------x--7--7--7--7--7------------------------|
^
(p.m.)

E--------------------------------------0-------0--------|
B-----------------------------------0-----------0-------|
G--2-----------------------------1---------------1------|
D--2--2---2---2---------------4-------------------4-----|
A--0--0---0----------------2-----------------------2----|
E-------3---2--1--------0---------------------------0---|

[email protected]

Log In to leave a comment

After registration we will return you to the same place
Comments
face-with-monocle
If you wait a bit, some comments may appear here...

Shhh...