• 10
  • Share
  • Transposing
    0
  • Font Size
    15
Dave Matthews Band – Bartender
Bar Tender

I figured this out from Dave's VH1 Story Tellers performance with Tim.
Dave plays the tab below while Tim does what he does best,
Making nosies you never thought could hear out a guitar and
Blends them nicely into the backround.

Drop D
E---------------------------)-----------------------------|
B---------------------------)-----------------------------|
G---------------------------)-----------------------------|
D------0-----0-----0-----0--)-----0-----0-----0-----0-----|
A-3h5-----3-----3-----5-----)3h5-----5-----5-----5--------|
D---0-----------------------)--4-----------5--------------|
       ^^^^^^^^^^^^^^^^^^^
   Repeat this several times
   its very simple,
   just listen to the song.

Once or twice he does this near the end
E--------------------------------------------------------|
B--------------------------------------------------------|
G--4-4-4-4-4-4-4-----------------------------------------|
D--4-4-4-4-4-4-4--0-5--5-5-5-5-5-------------------------|
A--2-2-2-2-2-2-2--0-5--5-5-5-5-5-------------------------|
D-----------------0-5--5-5-5-5-5-------------------------|

Any changes u want me to make, battlesman89@yahoo.com

Log In to leave a comment

After registration we will return you to the same place
Comments
face-with-monocle
If you wait a bit, some comments may appear here...

Shhh...