Loading...
  • 0
  • Share
  • Transposing
    0
  • Font Size
=-=-=-=-=-=-=-=-=-=-=-=-=-=-=-=-=-=
Dave Matthews Band
#34
Under The Table And Dreaming (1994)
Tabbed by Leandro Koren
[email protected]
=-=-=-=-=-=-=-=-=-=-=-=-=-=-=-=-=-=

Intro & Part 1:

E|-|----------------------------------------------------------------|-|
B|-|----------------------------------------------------------------|-|
G|-|------------------11----------------7--6------------------------|-|
D|-|--------9-----9-----------11/-----7------3/4--7-----------------|-|
A|-|-----7-----7----------8/9-------5----------------5/7--7--7--9/--|-|
E|-|--5-------------------------------------------------------------|-|

Transition 1:

E|-|------------------------------------|-|
B|-|------------------------------------|-|
G|-|--------4------------4--------------|-|
D|-|--------4------------5--------------|-|
A|-|-----4------------5-----------------|-|
E|-|--2------------3---------0---0---2--|-|

Part 2:

E|-|-----------------------------------------|-|
B|-|-----------------------------------------|-|
G|-|-----------------------------------------|-|
D|-|----7-------------------7----------------|-|
A|-|----5/4-------5--7------5/4--------5--7--|-|
E|-|--5------5--7----------------5--7--------|-|

Transition 2:

E|-|---------------------------------------------------------|-|
B|-|---------------------------------------------------------|-|
G|-|------------6--------------------------------------------|-|
D|-|--5h7-5--4-------9-----7----------------9/10-------9/10--|-|
A|-|--------------7-----5--------10------8----------8--------|-|
E|-|--------------------------8-------6----------6-----------|-|

Fade Out:

E|-|--------------|-|
B|-|--------------|-|
G|-|--------------|-|
D|-|--------9/10--|-|
A|-|-----8--------|-|
E|-|--6-----------|-|

Log In to leave a comment

After registration we will return you to the same place
Comments
face-with-monocle
If you wait a bit, some comments may appear here...

Shhh...

Most Popular
You Might Like