Loading...
  • 0
  • Share
  • Transposing
    0
  • Font Size

Vindicated - Dashboard Confessional
----------------------------------------------------------------------------

Artist: dashboard confessional
Song: vindicated
Tabbed by: cesar

Tuning: standard (E B G D A E)

Intro,
E|--------|--------|--------|----|-------|
B|--------|--------|--------|----|-------|
G|-12-(7x)|-10-(7x)|-10-(6x)|-12-|-8-(7x)| GtR.1
D|-xx-----|--x-----|--x-----|-xx-|-x-----|
A|-10-----|--8-----|--8-----|-10-|-6-----|
E|--------|--------|--------|----|-------|

Intro, a little distortion, u cant really hear this guitar, ohh, but i do
E|---|
B|---|
G|---| GtR.2
D|-8-|
A|-6-|
E|---|

Verse, i think they just do this
E|--------|
B|--------|
G|-x-xxxx-| GtR.1
D|-x-xxxx-|
A|-x-xxxx-|
E|-x-xxxx-|

Verse, this is later in the verse, and its the piano, heres how to play it though
E|------------|
B|------------|
G|----------3-| PIAnO tabbed to GtR.2
D|-8--5--3--1-|
A|-6--3--1----|
E|------------|

Chorus, not sure about this
E|-----------------------------|
B|----------------------3------|
G|-8------5------3------3-(7x)-| GtR.1
D|-8-(7x)-5-(7x)-3-(7x)-1------|
A|-6------3------1-------------|
E|-----------------------------|

E|--------|--------|--------|----|-------|
B|--------|--------|--------|----|-------|
G|-12-(7x)|-10-(7x)|-10-(7x)|-12-|-8-(7x)| GtR.2
D|-xx-----|--x-----|--x-----|-xx-|-x-----|
A|-10-----|--8-----|--8-----|-10-|-6-----|
E|--------|--------|--------|----|-------|

Bridge. do this a few times
E|-------------------------|
B|-------------------------|
G|-------------------------| GtR.1
D|-5-5-5-5-3-3-3-3-2-2-2-2-|
A|-3-3-3-3-1-1-1-1-0-0-0-0-|
E|-------------------------|

Bridge, play towards the end of the riff of GtR.1's
B = hammer on -- p = pull off -- / = slide -- + = harmonic
E|---------------------
B|-11-8-6-8-6h8p6-6/4+-
G|---------------------
D|---------------------
A|---------------------
E|---------------------

Thats mostly it, any questions, im [email protected]

Log In to leave a comment

After registration we will return you to the same place
Comments
face-with-monocle
If you wait a bit, some comments may appear here...

Shhh...