Loading...
Dashboard Confessional logo

Living In Your Letters Dashboard Confessional

  • 0
  • Share
  • Transposing
    0
  • Font Size
Dashboard Confessional- Living In Your Letters
By:Andrew Mcshan([email protected])

Verse
Db-0--0--0----0----0---0
Db-0--0--0----0----0---0
Db-0--0--0----0----0---0
Db-0--4--10---5----7---4
Ab-0--4--9----7----9---4
Db-0--0--0----0----0---0

Chorus
Db-0--4--5--4--2
Db-0--0--0--0--0
Db-0--0--0--4--2
Db-0--0--0--0--0
Ab-0--4--5--0--0
Db-0--4--5--0--0

Outro
Db-7--5--4--2--5--4--0
Db-0--0--0--0--0--0--0
Db-0--0--0--0--0--0--0
Db-7--5--4--2--5--4--0
Ab-0--0--0--0--0--0--0
Db-0--0--0--0--0--0--0

I'm always assuming the worst,
But you're going on none the less
& there's nothing to cusion your heart led fall.
Letters from further away
Keep pulling me close to home.
And there's something to cushion my callous sighs.
And I know that you hope for
Longer good-byes
Embracing for forever
And falling in your eyes.

Pouring over photographs.
I'm living in your letters.
Breathe deeply from this envelope
It smells like you & I can't be
Without that scent. It's filling me
With all you mean to me.

Continually failing these trials
But you stand by me nonetheless
& you won't let me sink
Though I'm beggin you.
Phone calls from further away
& messages on my machine,
But I don't ever tell you this distance
Seems terrible.
There is no need to test my heart,
With useless space.
These roads go on forever
& so do you and I.

So I'll hit the pavement
It's gotta be better than waiting
& pushing you far away
Cause I'm scared.
So I'll take my chances
& head on my way up there.
Cause turning to you is like falling in love when you're ten.

Log In to leave a comment

After registration we will return you to the same place
Comments
face-with-monocle
If you wait a bit, some comments may appear here...

Shhh...