Loading...
Darkness logo

Love Is Only A Feeling Darkness

  • 0
  • Share
  • Transposing
    0
  • Font Size
----------------------------------------------------------------------------
Love is only a feeling - Darkness
----------------------------------------------------------------------------
Tabbed by: Adam Smith
Email: [email protected]

Tuning:Standard (E,A,D,G,B, E)

This tab is 100% right, but sorry havent done the solo's yet, but apart form
That its 100% right, this personaly is my fav darkness song by a long shot soo i
Just had to tab it out for all you guys,Its there new single and the video rocks
For it , remember buy the single INJOY

Gt.1 = the one im tabing out (dan hawkins)
Gt.2 = solo's, (justin hawkins)

Drums come on first , solo start's gt.2

Intro= (HEAVY DIST)

G D A G G D A A
E|---3-----2--------------3--------3--------2-------------------------------
B|---0-----3------2-------0--------0--------3-------2------2----------------
G|---0-----2------2-------0--------0--------2-------2------2-----(x2)-------
D|---0------------2-------0--------0----------------2------2----------------
A|---2--------------------2--------2----------------------------------------
E|---3--------------------3--------3----------------------------------------
Verse = (clean)

G D A G G D A A
E|---3-----2--------------3--------3--------2-------------------------------
B|---0-----3------2-------0--------0--------3-------2------2----------------
G|---0-----2------2-------0--------0--------2-------2------2-----(x2)-------
D|---0------------2-------0--------0----------------2------2----------------
A|---2--------------------2--------2----------------------------------------
E|---3--------------------3--------3----------------------------------------

Pre-chorus = (HEAVY DIST)
E5 A5 E5 D5
E|--------------------------------------------------------------------------
B|--------------------------------------------------------------------------
G|--------------------------------------------------------------------------
D|-------2---------7--------------------------------------------------------
A|---2---0----2----5--------------------------------------------------------
E|---0--------0-------------------------------------------------------------

Chorus = (HEAVY DIST)

B5 G5 D5 A5 B5 G5 D5 A5 B5 G5 D5 A5 G5 E5
E|--------------------------------------------------------------------------
B|--------------------------------------------------------------------------
G|--------------------------------------------------------------------------
D|------------7--2----------------7---2------------7---2--------------------
A|-----9---5--5--0-------9----5---5---0-----9---5--5---0----5----2----------
E|-----7---3-------------7----3-------------7---3-----------3----0---------

GT.2 solo ,

Gt.1 play bridge While solo is playing (HEAVY DIST)
G D A G G D A A
E|---3-----2--------------3--------3--------2-------------------------------
B|---0-----3------2-------0--------0--------3-------2------2----------------
G|---0-----2------2-------0--------0--------2-------2------2-----(x1)-------
D|---0------------2-------0--------0----------------2------2----------------
A|---2--------------------2--------2----------------------------------------
E|---3--------------------3--------3----------------------------------------

Verse 2= (clean)
G D A G G D A A
E|---3-----2--------------3--------3--------2-------------------------------
B|---0-----3------2-------0--------0--------3-------2------2----------------
G|---0-----2------2-------0--------0--------2-------2------2-----(x1)-------
D|---0------------2-------0--------0----------------2------2----------------
A|---2--------------------2--------2----------------------------------------
E|---3--------------------3--------3----------------------------------------

Pre-chorus = (HEAVY DIST)
E5 A5 E5 D5
E|--------------------------------------------------------------------------
B|--------------------------------------------------------------------------
G|--------------------------------------------------------------------------
D|-------2---------7--------------------------------------------------------
A|---2---0----2----5--------------------------------------------------------
E|---0--------0-------------------------------------------------------------

Chorus = (HEAVY DIST)

B5 G5 D5 A5 B5 G5 D5 A5 B5 G5 D5 A5 D5
E|--------------------------------------------------------------------------
B|--------------------------------------------------------------------------
G|--------------------------------------------------------------------------
D|------------7--2----------------7---2-------------7----2-----7------------
A|-----9---5--5--0-------9----5---5---0-----9---5---5----0-----5------------
E|-----7---3-------------7----3-------------7---3---------------------------

Gt.2 solo
Gt.1 plays bridge

Gt.1 bridge =

G D A A B5 G5 D5 A5
E|--3-----2-----------------------------------------------------------------
B|--0-----3-----2-----2-----------------------------------------------------
G|--0-----2-----2-----2----------------------------------keep playing untill
D|--0-----------2-----2--------------------7----2---------------outro,when--
A|--2--------------------------9-----5-----5----0---------------solo ends---
E|--3--------------------------7-----3--------------------------------------

Outro=

B5 FADE IN G D A G G D A A EM
E|--------------------3-----2---------3------3-----2------------------------
B|--------------------0-----3----2----0------0-----3-----2----2------------
G|--------------------0-----2----2----0------0-----2-----2----2-------------
D|--------------------0----------2----0------0-----------2----2------2------
A|---9----------------2---------------2------2-----------------------2-----
E|---7----------------3---------------3------3------------------------------

The first flush of youth was upon you when our eyes first met
And I knew that to you and into your life I had to get
I felt light-headed at the touch of this stranger's hand
An assault my defences systematically failed to withstand

'Cos you came at a time
When the pursuit of one true love in which to fall
Was the be all and end all

Love is only a feeling
(Drifting away)
When I'm in your arms I start believing
(It's here to stay)
But love is only a feeling
Anyway

The state of elation that this unison of hearts achieved
I had seen, I had touched, I had tasted and I truly believed

That the light of my life
Would tear a hole right through each cloud that scudded by
Just to beam on you and I

Love is only a feeling
(Drifting away)
When I'm in your arms I start believing
(It's here to stay)
But love is only a feeling
Anyway, anyway

Love is only a feeling
(Drifting away)
And we've got to stop ourselves believing
(It's here to stay)
'Cos love is only a feeling
Anyway.

Log In to leave a comment

After registration we will return you to the same place
Comments
face-with-monocle
If you wait a bit, some comments may appear here...

Shhh...