Darkness logo

Givin Up Darkness

  • 0
  • Share
  • Font Size
    15
Darkness – Givin Up
Intro   e---------------------------------
        b--4-4-5-4-4-4-5-4-4-4-5-4--------
        g--4-4-4-4-4-4-4-4-4-4-4-4-----3-4
        d--4-4-6-4-4-4-6-4-4-4-6-4-4-4-3-4
        a--------------------------4-4-1-2
        E--------------------------2-2----

Verse   e------------------
        b------------------
        g--4-4----------3-4
        d--4-4-6-4-6-44-3-4
        a--2-2-6-4-6-44-1-2
        E------4-2-4-22----

E---------------4-3--
B---------------5-4-4
G---------------4-3-4  REPEAT THIS TWICE
D--4-4-44-4-4-------4
A--4-4-44-4-4--------
E--2-2-22-2-2--------

E--0-0-0-0-0hold string-0-0-0-0-----2
B--0-4-2-0-0hold string-0-4-2-0-2/4--
G----------1hold string--------------
D------------------------------------
A------------------------------------
E------------------------------------

Chorus=same as intro and verse together

Log In to leave a comment

After registration we will return you to the same place
Comments
face-with-monocle
If you wait a bit, some comments may appear here...

Shhh...