Loading...
  • 0
  • Share
  • Transposing
    0
  • Font Size
.  - palm mute                 /  - slide up to
- slide down to ~ - vibrato
" - tremelo picking

Tochnost - blizkaia k originalnomu zvuchaniu.

Tune to D# (Eb, Ab, Db, Gb, Bb, Eb)

Intro is played by a 5-string bass.

Bb|-13----------------12---------------10------10-12-10------10--------|
Gb|--9-----------------9----------------9---------------9-------9------|Bass
Db|-10----------------10---------------10-----------------10------10---| Gtr
Ab|--0-----------------0----------------0----------------------------0-|
Eb---------------------------------------------------------|

Riff A.1
Bb|----------10----------------12--------------10------12------10------|
Gb|-------10----10----------12----12---------9----9-------9-------9----|Bass
Db|----10----------10----12----------12---10--------10------10------10-| Gtr
Ab|--8----------------10----------------0------------------------------|
Eb---------------------------------------------------------|

Repeat Riff A.1

Riff A.2
Bb|-13------13-12-10-12------12-10----10------10-12-10------10---------|
Gb|----9----------------9----------12----9-------------9-------9-------|Bass
Db|------10---------------10---------------10------------10------10----| Gtr
Ab------------------------------------------------------0--|
Eb---------------------------------------------------------|

Repeat Riff A.2
Repeat Riff A.1 (2 Times)
Repeat Riff A.2 (2 Times)

Riff A.3
Bb|-5-----5-----5-----5-3-5-6-----6-----6-----6-5-3--|
Gb|---2-----2-----2-----------2-----2-----2----------|Bass
Db------------------0-----0-----0--------| Gtr
Ab|-----0-----0-----0--------------------------------|
Eb---------------------------------------|

Bb|-5-----5-----5-----5-3-1-0-----1-----0-----1---3--|
Gb|---2-----2-----2-----------0-----0-----0-----0----|Bass
Db------------------2-----2-----2--------| Gtr
Ab|-----0-----0-----0--------------------------------|
Eb---------------------------------------|

Repeat Riff A.3

Riff B
----------------|
----------------|
|--4---4-5---5-4---4-5---7--|Gtrs I
|--2---2-5---5-2---2-5---7--| & II
|--2-222-3-333-2-222-3-335--|
|--0-000-------0-000--------|
.. ..

Riff C
--------------------------|
--------------------------|
|-/5--------5--7-/10-9--------7--9--7-|Gtr I
--------------------------|
--------------------------|
--------------------------|
| |
--------------------------|
--------------------------|
--------------------------|Gtr II
|--3----------------------------------|
|--3--------3--3--3--2--------2--2--2-|
|--1--------1--1--1--3--------3--3--3-|
. . . . . .

-------------------------------------|
--h--p-p-h----h--p-p-h-----h--p-p-h--|
|--9~--------9-10-9-7-9--9-10-9-7-10--9-10-9-7-9-|Gtr I
-------------------------------------|
-------------------------------------|
-------------------------------------|
| |
-------------------------------------|
-------------------------------------|
|--2-------2-2---------4---------2-------2-------|Gtr II
|--2-------2-2-------2-2-------2-2-------2-------|
|--0--0-0--0-0--0-0--0-0--0-0--0-0--0-0--0-------|
-------------------------------------|
. . . . . . . .

--------------------------|
--------------------------|
|--5--------5--7-/10-9--------7--9--7-|Gtr I
--------------------------|
--------------------------|
--------------------------|
| |
--------------------------|
--------------------------|
--------------------------|Gtr II
|--3----------------------------------|
|--3--------3--3--3--2--------2--2--2-|
|--1--------1--1--1--3--------3--3--3-|
. . . . . .

---------------------------|
--h--p-p-h----h--p-p-h-----|
|--9~--------9-10-9-7-9--9-10-9-7-10-9-|Gtr I
---------------------------|
---------------------------|
---------------------------|
| |
---------------------------|
---------------------------|
|--2-------2-2---------4-------------2-|Gtr II
|--2-------2-2-------2-2-------2-h3--2-|
|--0--0-0--0-0--0-0--0-0--0-0--0-(0)-0-|
---------------------------|
. . . . . .

Riff D
----------------------------------------------|
--------------------------------------5-5555--|
|--5-5555-5-4-2--4-4444-4-2---2-2222-2-4-2----------------|Gtr I
----------------5--------------2-2222---------|
----------------------------------------------|
----------------------------------------------|
| |
----------------------------------------------|
----------------------------------------------|
-----4-4444-------9-9999----------------------|Gtr II
|--2-2222--------2-2222-------7-7777----------------------|
|--0-0000----------------------------------2-2222---------|
-------------------------------0-0000---------|

Repeat Riff D

Riff E
--------------------------------------------|
-------------------6666666-----6666666--8-6-|
|-/9-99999-7----/9-99999-10-9----------9-7--------------|Gtr I
|-/7-77777---10-/7-77777--------------------------------|
--------------------------------------------|
--------------------------------------------|
| |
--------------------------------------------|
----------------------------------------5---|
--------------7-5--7777777-----7777777----7-|Gtr II
|-/7-77777------/7-77777-------7777777-----7777777------|
|-/7-77777------/7-77777-------5555555-----5555555------|
|-/5-55555------/5-55555--------------------------------|

----------------------------------------------|
--------------------------------------------3-|
|-/9-99999-7----/9-99999-10-9--4-4444-5-5555-4-4444---5---|Gtr I
|-/7-77777---10-/7-77777----------------------------5-----|
----------------------------------------------|
----------------------------------------------|
| |
----------------------------------------------|
----------------------------------------------|
--------------7-5--4-4444-5-5555-4-4444-------|Gtr II
|-/7-77777------/7-77777-------2-2222-2-2222-2-2222-------|
|-/7-77777------/7-77777----------------------------5-5-5-|
|-/5-55555------/5-55555----------------------------3-3-3-|

Repeat Riff E

Riff F
-------------------------------------------|
|-5-----------5------6-5----------------------0--1--3--|
|-5-----------5------7-5-7---9-----------9----2--2--2--|Gtr I
|-7-----------7------7-7-----9-999999999-9----2--2--2--|
|-7-----------7------5-7-----7-777777777-7----0--0--0--|
|-5-555555555-5--555-5-5-------.........---------------|
| ......... |
| |
-------------------------------------------|
-------------------------------------------|
|-2-2---------2-----2-2-2----9-----------9----------7--|Gtr II
|-2-2---------2-----2-2-2----9-----------9----9--10-7--|
|-0-0---------0-----0-0-0----7-777777777-7----7--7--7--|
-------------------.........---------------|

Play Similie Of Riff F (2 Times)

Riff G
--------------------------------------------|
|-5-----------5--------6-5------------------------------|
|-5-----------5--------7-5-7--9-----------9-------------|Gtr I
|-7-----------7--------7-7----9-999999999-9--999--------|
|-7-----------7--------5-7----7-777777777-7--777--5-7-8-|
|-5-555555555-5--55555-5-5------.........----...--------|
| ......... ..... |
| |
--------------------------------------------|
--------------------------------------------|
--------------------------------------------|Gtr II
|-------2-3-2----------0---0----------------------------|
|-3~----------3----------3----2~----0-2-3-2~------2-3-5-|
--------------------------------------------|

Repeat Riff G

Riff B
---------------------------------------------|
---------------------------------------------|
|--5-------------------------------------7-------7-9-10--|Gtr I
|--7-------------------7-7777-9-----9-10---9-------------|
|--7--------------------------7------------7-------------|
|--5-----------------------------------------------------|
| |
---------------------------------------------|
---------------------------------------------|
---------------------------------------------|Gtr II
|----22222-/3-2----22220---0-----------------------------|
|--3-------------3-------3----2-22220-2-3--2-22222-3-5---|
---------------------------------------------|

Repeat Riff B

Riff I
-----------------------------------|
-----------------------------------|
-----------------------------------|Gtr I
|--7-----------------10---------7--------------|
|--7--------775577----8---------5------557788--|
|--5--------......---------------------......--|
| |
-----------------------------------|
-----------------------------------|
----------5------------------------|Gtr II
|--7------------------3--002233-7--------------|
|--7---------------------......-5------5-7-8---|
|--5-------------------------------------------|

-----------------------------------|
-----------------------------------|
-----------------------------------|Gtr I
|--7-----------------10---------7--------------|
|--7--------775577----8---------5------557788--|
|--5--------......---------------------......--|
| |
-----------------------------------|
-----------------------------------|
----------5------------------------|Gtr II
|--7------------------3--002233-7--------------|
|--7---------------------......-5------5-7-8---|
-----------------------------------|

Riff J
|---12------------------------(12)-------------|
-----------------------------------|
|----9-------------------------(9)-------------|Keyboards
-----------------------------------|
-----------------------------------|
-----------------------------------|
| |
-----------------------------------|
---------(1)-----------------------|
|--2------------------0---------0--0-----------|Gtr I
|--2--------2-2-2-----2-------2----2-----------|
|--0--------0-0-0-----3-----3------2---223322--|
.-.-.----------------------......--|
| |
-----------------------------------|
-----------------------------------|
|--2------------------0------------------------|Gtr II
|--2------------------2------------2-----------|
|--0------------------3----333333--2---2-3-2---|
---------------......--------------|

Repeat Riff J, (But without Keyboards)
Repeat Riff C

Riff K
----------------------------------------------|
--------------------------------------5---5---|
|--5~-----5-4-2--4~-----4-2---2~-----2-4-2----------5-----|Gtr I
----------------5--------------2~-------------|
----------------------------------------------|
----------------------------------------------|
| |
----------------------------------------------|
----------------------------------------------|
-----4------------9---------------------------|Gtr II
|--2-------------2------------7---------------------------|
|--0---------------------------------------2--------------|
-------------------------------0--------------|

Repeat Riff K

Riff L
-----------------------------------------------|
--------------------6666666-----6666666--8-6---|
|--/9-99999-7----/9-99999-10-9----------9-7----------------|Gtr I
|--/7-77777---10-/7-77777----------------------------------|
-----------------------------------------------|
-----------------------------------------------|
| |
-----------------------------------------------|
-----------------------------------------------|
|---9---9hb+r-----9---9hb+r----10--10fb+r--10----10fb+r----|Gtr II
-----------------------------------------------|
-----------------------------------------------|
-----------------------------------------------|

-----------------------------------------------|
--------------------------------------------3--|
|-/9-99999-7----/9-99999-10-9--4-4444-5-5555-4-4444---5----|Gtr I
|-/7-77777---10-/7-77777----------------------------5------|
-----------------------------------------------|
-----------------------------------------------|
| |
-----------------------------------------------|
|--------hp-------------hp---------------------------------|
|--9--9-797------9--9--797-------------------7------7-9-10-|Gtr II
-10------------10--9-----10--------------------|
-----------------------------------------------|
-----------------------------------------------|

Repeat and Fade

Bass Ending
Bb|-5-----5-----5-----5-3-5-6-----6-----6-----6-5-3--|
Gb|---2-----2-----2-----------2-----2-----2----------|Bass
Db------------------0-----0-----0--------| Gtr
Ab|-----0-----0-----0--------------------------------|
Eb---------------------------------------|

Bb|-5-----5-----5-----5-3-1-0-----1-----0-----1---3--|
Gb|---2-----2-----2-----------0-----0-----0-----0----|Bass
Db------------------2-----2-----2--------| Gtr
Ab|-----0-----0-----0--------------------------------|
Eb---------------------------------------|

Repeat Bass Ending 1 Time

Riff M
-----------------------------------|
-----------------------------------|
|--4------4--5------5--4------4--5------7------|Gtr I
|--2------2--5------5--2------2--5------7--7--|
|--2--2-2-2--3--3-3-3--2--2-2-2--3--3-3-5--7--|
|--0------0------------0------0------------5--|
| . . . . . . . . |
| |
-----------------------------------|
-----------------------------------|
|--4------4--5------5--4------4--5------7------|Gtr II
|--2------2--5------5--2------2--5------7--7--|
|--2--2-2-2--3--3-3-3--2--2-2-2--3--3-3-5--7--|
|--0------0------------0------0------------5--|

Log In to leave a comment

After registration we will return you to the same place
Comments
face-with-monocle
If you wait a bit, some comments may appear here...

Shhh...