• 0
  • Share
  • Font Size
Dandy Warhols – Shakin
Shakin' - bassline

By The Dandy Warhols
From album 'Thirteen tales from urban bohemia'

Transcribed by Christian Reindel ([email protected])
Any questions or corrections- e-mail me

Normal tuning

X - mute note on 2.fret

Main riff
G:|----------------------------------|
D:|----------------------------------|
A:|----------------------------------|
E:|--2-2--X-2-2--X-2-2--2--3-3-2-1---|

Chorus
G:|--------------------------------------|
D:|--------------------------------------|
A:|--------------------------------------|
E:|-0-0-0-0-0-0-0-0-5-5-5-5-5-5-5-5-5----|

G:|----------------------------------|
D:|----------------------------------|
A:|----------------------------------|
E:|--2-2--X-2-2--X-2-2--2--3-3-2-1---|

G:|------------------------------------------------------------|
D:|------------------------------------------------------------|
A:|------------------------------------------------------------|
E:|-0-0-0-0-0-0-0-0-5-5-5-5-5-5-5-5-5-5-5-5-5-5-5-5-5-5-5-5-5--|

That's it.

Log In to leave a comment

After registration we will return you to the same place
Comments
face-with-monocle
If you wait a bit, some comments may appear here...

Shhh...

Versions

Most Popular
You Might Like