Loading...
Cure logo

Out Of This World Cure

  • 0
  • Share
  • Transposing
    0
  • Font Size
Out of this World

By the Cure
From album 'bloodflowers'

Transcribed by Christian Reindel([email protected])
Any questions or corrections- e-mail me

Normal tuning (E,A,D,G,b, E)

Intro

Em G (3 times)

Bm A (3 times)

D C Bm (3 times)

A Bm Cis (1 time)

D Em (4 times)

D Em D Em
E:|---------------------------------|---------------------------------|
B:|---------------------------------|---------------------------------|
G:|----14-14-14-12-11-12^11^12------|-----14-14-14--14-12-11----------|
D:|-12--------------------------12--|--12---------------------14------|
A:|---------------------------------|---------------------------------|
E:|---------------------------------|---------------------------------|

D Em D Em
E:|---------------------------------|---------------------------------|
B:|---------------------------------|---------------------------------|
G:|----14-14-14-12-11-12^11^12------|---------------11---11-----------|
D:|-12--------------------------12--|-12--12------12---12---12/14-----|
A:|---------------------------------|---------------------------------|
E:|---------------------------------|---------------------------------|

Verse 1

D Em
When we look back at it all as I know we will
...

Bm A
And I know we have to go -I realize

Bm A
We only get to stay so long
...

D Em
Where we belong
...

Verse 2

D Em
When we think back to all this and I'm sure we will
...

Bm A
And I know we have to go -I realize

Bm A
We always have to say goodbye
...

D C Bm
But real lives are the reason why

D C Bm
We want to live another live

D C Bm
We want to feel another time

A Bm Cis
Another time

Piano-solo

D Em (4 times)

D Em D Em
E:|---------------------------------|---------------------------------|
B:|---------------------------------|---------------------------------|
G:|----14-14-14-12-11-12^11^12------|-----14-14-14--14-12-11----------|
D:|-12--------------------------12--|--12---------------------14------|
A:|---------------------------------|---------------------------------|
E:|---------------------------------|---------------------------------|

D Em D Em
E:|---------------------------------|---------------------------------|
B:|---------------------------------|---------------------------------|
G:|----14-14-14-12-11-12^11^12------|---------------11---11-----------|
D:|-12--------------------------12--|-12--12------12---12---12/14-----|
A:|---------------------------------|---------------------------------|
E:|---------------------------------|---------------------------------|

Verse 3

D Em
When we look back at it all as I know we will
...

Bm A
And I know we have to go -I realize

Bm A
We always have to turn away

...

D C Bm
But real lives are why we stay

D C Bm
For another dream another day

D C Bm
For another world anoher way

A Bm Cis
For another way

Outro

D Em
One last time before it's over

D Em
One last time before the end

D Em D
One last time before it's time to go again

End.

Log In to leave a comment

After registration we will return you to the same place
Comments
face-with-monocle
If you wait a bit, some comments may appear here...

Shhh...