Loading...
Creed logo

Whats This Life For Creed

  • 0
  • Share
  • Transposing
    0
  • Font Size
What's This Life For
Creed

Standard Tuning (EADGBE)
B - hammer-on
P - pull-off

VERSE
G D Dsus4 Bsus2 Csus2
E-3----------2-2h3p2-----------2--2-------3-------|
B-3-3-3----3---------3---------2--2---------3-----|
G-0-0----2-------------0-----4----------5-----5---|5x
D-0-0--0-------------------4----------5-----------|
A-2-2--------------------2----------3-----------0-|
E-3-3---------------------------------------------|

G D Dsus4
E-----3----------2-2h3p2-2-----|
B-----3--3-----3-----------3---|
G-----0------2---------------0-|
D----0-----0-------------------|
A---2--------------------------|
E-3----------------------------|

B5/E Cmaj7/E
E-----------------------------|
B-0--0--0-0-0-0--0-0--0-0-0-0-|
G-4--4--4-4-4-5--5-5--5-5-5-5-|
D-4--4--4-4-4-5--5-5--5-5-5-5-|
A-2--2--2-2-2-3--3-3--3-3-3-3-|
E-0--0--0-0-0-0--0-0--0-0-0-0-|

CHORUS
G5 D5 B5 C5
E-----------------------------------------------|
B-----------------------------------------------|
G--------------7--7--7---4--4--4-4--4-5--5--5---|3x
D-5--5--5-5--5-7--7--7---4--4--4-4--4-5--5--5---|
A-5--5--5-5--5-5--5--5-0-2--2--2-2--2-3--3--3-0-|
E-3--3--3-3--3----------------------------------|

G5 D5 B5 C5
E-----------------------------------------------|
B-----------------------------------------------|
G--------------7--7--7---4--4--4-4--4-5---------|
D-5--5--5-5--5-7--7--7---4--4--4-4--4-5---------|
A-5--5--5-5--5-5--5--5-0-2--2--2-2--2-3---------|
E-3--3--3-3--3----------------------------------|

INTERLUDE
G
E-3--3--3---3--3-3-3--3--3--3---3--3-3---|
B-3--3--3---3--3-3-3--3--3--3---3--3-3---|
G-0--0--0---0--0-0-0--0--0--0---0--0-0-0-|
D-0--0--0-X-0--0-0-0--0--0--0-X-0--0-0-0-|
A-2--2--2-X-2--2-2-2--2--2--2-X-2--2-2-0-|
E-3--3--3-X-3--3-3-3--3--3--3-X-3--3-3---|

C Cmaj7 Am Asus2
E-0--0-0---0--0-0---0---0-0--0-0---0--0-0---0---0-|
B-1--1-1---0--0-0---1p0-0-1--1-1---0--0-0---1p0-0-|
G-0--0-0-0-0--0-0-0-0---0-2--2-2-2-2--2-2-2-2---2-|
D-2--2-2-2-2--2-2-2-2---2-2--2-2-2-2--2-2-2-2---2-|
A-3--3-3-3-3--3-3-3-3---3-0--0-0-0-0--0-0-0-0---0-|
E-------------------------------------------------|

D/A Dsus4 C Cmaj7
E-2--2-2---3--3-3-2-2-2-2-0--0-0---0--0-0---0---0-|
B-3--3-3---3--3-3-3-3-3-3-1--1-1---0--0-0---1p0-0-|
G-2--2-2-2-2--2-2-2-2-2-2-0--0-0-0-0--0-0-0-0---0-|
D-0--0-0-0-0--0-0-0-0-0-0-2--2-2-2-2--2-2-2-2---2-|
A-0--0-0-0----0---0-0-0-0-3--3-3-3-3--3-3-3-3---3-|
E-------------------------------------------------|

G
E-3--3-3--3----3--3-3-3-3-3----3--3--3-3----3-3-3-|
B-3--3-3--3----3--3-3-3-3-3----3--3--3-3----3-3-3-|
G-0--0-0--0--0-0--0-0-0-0-0--0-0--0--0-0--0-0-0-0-|
D-0--0-0--0--0-0--0-0-0-0-0--0-0--0--0-0--0-0-0-0-|
A-2--2-2--2--2-2--2-2-2-2-2--2-2--2--2-2--2-2-2-2-|
E-3--3-3--3--3-3--3-3-3-3-3--3-3--3--3-3--3-3-3-3-|

-Lyrics- -Song Structure-
Hurray for a child Verse 6x
That makes it through Chorus 4x
If there's any way Verse 5x
Because the answer lies in you Chorus 4x
They're laid to rest Interlude 5x
Before they know just what to do
Their souls are lost
Because they could never find
What's this life for
I see your soul, it's kind of gray
I see your heart, you look away
You see my wrist, I know your pain
I know your purpose on your plane
Don't say a last prayer
Because you could never find
What's this life for
But they ain't here anymore
Don't have to settle the score
Cause we all live
Under the reign of one king

Log In to leave a comment

After registration we will return you to the same place
Comments
face-with-monocle
If you wait a bit, some comments may appear here...

Shhh...