Loading...
Creed logo

Pity For A Dime Creed

  • 0
  • Share
  • Transposing
    0
  • Font Size
X===============================PLEASE NOTE==============================X
X This tab is all my own and represents my interpretation of the song. X
X You may only use this tab for private study, scholarship, or research. X
X Do not change, deface, mutilate, or in any other way alter this tab. X
X You must email me first if you want to use this tab on your site. X
X========================================================================X

*Pity For A Dime*
Transcribed by [email protected]
Http://home.san.rr.com/obscured

Tuning: E A D G B E

INTRO/VERSE
|-0-0-0-------------------------0-0-0-------|
|-0-0-0---------------5p4-------0-0-0-------|
|-9-9-9-9-----------6-----6-----6-6-6-------|
|-9-9-9-9---------6---------6---7-7-7-------|
|-7-7-7-6-6h7p64-------------4-7-7-7-----9-|
|-0---0-------------------------5-5-5-5-7---|

BRIDGE
|-0-0-----------------4-4-7-7-|-0-0-----------------4-4-0-0-|
|-0-0-------5p4-------4-4-7-7-|-0-0-------5p4-------4-4-0-0-|
|-9-9-6---------6-----5-5-8-8-|-9-9-6---------6-----5-5-6 6-|
|-9-9---6---------6---6-6-9-9-|-9-9---6---------6---6-6-7-7-|
|-7-7-----4---------4-6-6-9-9-|-7-7-----4---------4-6-6-7-7-|
|-0-0-----------------4-4-7-7-|-0-0-----------------4-4-5-5-|

VERSE 2 - Same

CHORUS
|-0-0-0-0-3-3-3-3-7-7-7-7-2-2-2-2-|
|-0-0-0-0-3-3-3-3-7-7-7-7-2-2-2-2-|
|-9-9-9-9-0-0-0-0-8-8-8-8-3-3-3-3-|
|-9-9-9-9-0-0-0-0-9-9-9-9-4-4-4-4-|
|-7-7-7-7-2-2-2-2-9-9-9-9-4-4-4-4-|
|-0-0-0-0-3-3-3-3-7-7-7-7-2-2-2-2-|

BRIDGE - Strum around on this
|-0-0-0-0-3-0-3-0-|
|-0-0-0-3-0-3-0-0-|
|-1-1-1-1-1-1-1-1-|
|-2-2-2-2-2-2-2-2-|
|-2-2-2-2-2-2-2-2-|
|-0-0-0-0-0-0-0-0-|

Then add distortion to it and play these in between
|-------------------------|
|-------------------------|
|-5-5-5-------4-4-4-------|
|-5-5-5-5-5-5-4-4-4-4-4-4-|
|-3-3-3-5-5-5-2-2-2-4-4-4-|
|-------3-3-3-------2-2-2-|

CHORUS 2 - With distortion
|---------------------------------|
|---------------------------------|
|-----------------4-4-4-4---------|
|-2-2-2-2-5-5-5-5-4-4-4-4-4-4-4-4-|
|-2-2-2-2-5-5-5-5-2-2-2-2-4-4-4-4-|
|-0-0-0-0-3-3-3-3---------2-2-2-2-|

SOLO *artificial harmonic*
|---------------------------------------------------15----14-----------
|------------------------------------------------------15----14---15---
|-----------------------12----------------------------------------14b--
|--------------------14----14-*14*-------------------------------------
|-12b-12p10----10-------------------------10h12p10---------------------
|-----------12----------------------10h12------------------------------

----------------------------------------------------------------------
-------------------13-13p12-12--15--15--15----------------------------
--------------------------------14b-14b-14b-----12-12-----------------
---------10-10p9-9---------------------------14-------14--------12----
----------------------------------------------------------12-14----14-
-8-8p7-7--------------------------------------------------------------

----------------------------------------------------------------------
----------------12-12-12h13p12----12----------------------------------
-------------------------------14----14-12-12h14p12-11----------------
----------12-------------------------------------------14-------------
-14-12-14----14-------------------------------------------14----------
----------------------------------------------------------------------

----------------------------------------------------------------------
----------------------------------------------------------------------
----------------------------------------------------------------------
----------13-14-16-14-13----------------13-14-16-14-13----------------
-12-14-15----------------15-14-12-14-15----------------15-14-12-14-15-
----------------------------------------------------------------------
pm..................................................................

--------------------------------------------12-14-15p12h14p12h15p12h--
----------------------------------------------------------------------
----------------------------------------------------------------------
----------13-14-16-13-14----13----------------------------------------
-12-14-15----------------15----14-15-12-14----------------------------
----------------------------------------------------------------------
..............

-17p12h15p12h14p12h15p12h14p12h15p12h17p12h15p14p12-17p15p14-18b------|
----------------------------------------------------------------------|
----------------------------------------------------------------------|
----------------------------------------------------------------------|
----------------------------------------------------------------------|
----------------------------------------------------------------------|

CHORUS 3 - Same

BRIDGE 2 - Same

End with..
|-----------------------------(3)-|
|-----------------------------(0)-|
|-5-5-5-------4-4-4-----------(1)-|
|-5-5-5-5-5-5-4-4-4-4-4-4-4-4--2--|
|-3-3-3-5-5-5-2-2-2-4-4-4-4-4--2--|
|-------3-3-3-------2-2-2-2-2--0--|

Log In to leave a comment

After registration we will return you to the same place
Comments
face-with-monocle
If you wait a bit, some comments may appear here...

Shhh...