Loading...
Cream logo

Sunshine Of Your Love Cream

  • 0
  • Share
  • Transposing
    0
  • Font Size
Riff 1:
E|-----------------------------------------------------------
B|-----------------------------------------------------------
G|-7---7---5---7---------------------------------------------
D|-------------------7------6------5-----------0---3-------0-
A|-----------------------------------------------------------
E|-----------------------------------------------------------

Fill 2:
D D C D Either Or (Just listen)
E|-------------------------------------------|---------------|---------------
B|-7---7---5---7-----------------------------|-----6~~~~~~~--|---------------
G|-X---X---X---X-----------------------------|-7-----------7-|-0---3~~~~~~~0-
D|-7---7---5---7-----7------6------5---------|---------------|---------------
A|-5---5---3---5-----------------------------|---------------|---------------
E|-------------------------------------------|---------------|---------------

Alternative Fill 2: Slightly easier, slightly wrong, but still decent.
Either Or (Just listen)
E|--------------------------------------------|---------------|---------------
B|--------------------------------------------|-----6~~~~~~~--|---------------
G|--------------------------------------------|-7-----------7-|-0---3~~~~~~~0-
D|--7---7---5---7-----7------6------5---------|---------------|---------------
A|--7---7---5---7-----------------------------|---------------|---------------
E|--------------------------------------------|---------------|---------------

Fill 3:
G5 G5 F5 G5
E|----------------------------------------------------------
B|---------------------------------------------------------
G|-12--12--10--12------------------------------------------
D|-12--12--10--12----12-----11------10-----------8~~~~~~---
A|-10--10--8---10----------------------------10---------10-
E|---------------------------------------------------------

Riff 4: Riff 5:
A5 C5 G5 A5
E|------------------------------------------|-------------------
B|------------------------------------------|-------------------
G|------------------------------------------|-------------------
D|-7----7--7--------------10----------5-----|-7---7-7---7-7---7-
A|-7----7--7--------------10----------5-----|-7---7-7---7-7---7-
E|-5----5--5---------------8----------3-----|-5---5-5---5-5---5-

Intro: Riff 1 }x2

Verse:
Fill 2
Its getting near dawn,
Fill 2
When lights close their tired eyes.
Fill 2
I'll soon be with you, my love,
Fill 2
To give you my dawn surprise.
Fill 3
I'll be with you darling, soon.
Fill 2
I'll be with you when the stars start falling.

Chorus:
Fill 4
I've been waiting so long to be where I'm going,
Fill 5
In the sunshine of your love.

Verse 2:
Fill 2
I'm with you my love,
Fill 2
The light shining through on you.
Fill 2
Yes, I'm with you my
Fill 2
Love, Its the morning and just we two.
Fill 3
I'll stay with you darling now, I'll stay
Fill 2
With till my seas are dried up.

Chorus:
Fill 4
I've been waiting so long to be where I'm going,
Fill 5
In the sunshine of your love.

Log In to leave a comment

After registration we will return you to the same place
Comments
face-with-monocle
If you wait a bit, some comments may appear here...

Shhh...