Loading...
Cradle Of Filth logo

The Forest Whispers My Name Cradle Of Filth

  • 0
  • Share
  • Transposing
    0
  • Font Size
CRADLE OF FILTH
'The Forest Whispers My Name'

From the album 'The Principle Of Evil Made Flesh'

Transcribed by
AJMB ([email protected])

Find more metal tablatures at

Tune down to D (1 step)

BASS INTRO:
|-------------------------|
|-------------------------|
|--------4---2---1-2-1----|
|--0---2---2---2-------2--|

RIFF1: FILL1:
E F# C# F E F# C# F E
|------------------------------------------------------| |-----|
|------------------------------------------------------| |-----|
|------------------------------------------------------| |-----|
|---------6------------------------6--------------3--| |-----|
|--2---4--4--3-3-3--333333--2---4--4------3-3-3-3----| |-----|
|--0---2------1-1-1--111111--0---2------0-0-1-1-1-1----| |--0--|
. . . ...... . . . . . . h

BASS RIFF:
|----------------------------------------------------------|
|--3-2-0----------------------3-2-0------------------------|
|--------3-2-0----------------------3-2-0------------------|
|--------------3-1-00000000---------------3-1-44444-11111--|

RIFF2:
E G# F
|----------------------------------------------------------|
|----------------------------------------------------------|
|----------------------------------------------------------|
|--3-2-0----------------------3-2-0------------------------|
|--------3-2-0-----22222222---------3-2-0-----66666-33333--|
|--------------3-1-00000000---------------3-1-44444-11111--|

RIFF3:
|---------------------------------------------------------------
|---------------------------------------------------------------
|---------------------------------------------------------------
|---------------------------------------------------------------
|-------------------33333333-22222222------------------33333333-
|--0000000000000000-------------------1111111111111111----------

------------|
------------|
------------|
------------|
-2222-------|
------3333--|

FILL2:
|---------------------------------------------------------------
|---------------------------------------------------------------
|---------------------------------------------------------------
|-------------------55555555-44444444------------------55555555-
|--2222222222222222-------------------3333333333333333----------
|---------------------------------------------------------------

------------|
------------|
------------|
-4444-------|
------5555--|
------------|

RIFF4:
|---------------------|
|---------------------|
|---------------------|
|---------------------|
|--/7---/8---/7---/6--|
|---------------------|

RIFF5:
E F E D#
|---------------------|
|---------------------|
|---------------------|
|---9----10---9----8--|
|---7----8 ---7----6--|
|---------------------|

RIFF6: FILL3:
|-----------------------------------------| |------|
|-----------------------------------------| |------|
|-----------------------------------------| |------|
|---------9--9-8-7------------------------| |--9/--|
|--7---7-----------8--8-10-8--------------| |--7/--|
|----------------------------10--10-7-10--| |------|

RIFF7: FILL4:
E F# G F# G F# D
|---------------------------| |-----|
|---------------------------| |-----|
|---------------------------| |-----|
|--9---9-11-12--11--12--11--| |--7--|
|--7---7-9 -10--9 --10--9 --| |--5--|
|---------------------------| |-----|

RIFF8:
|-------------------------------------------------------------
|-------------------------------------------------------------
|-------------------------------------------------------------
|-------------------------------------------------------------
|--77777777-101010-999---------------101010-999------77777777-
|----------------------1010-88888888------------1010----------

-----------------------------------------|
-----------------------------------------|
-----------------------------------------|
-----------------77777777----------------|
-101010-999---------------10101010-9999--|
------------1010-------------------------|

FILL5:
|------------------------------------------------------------------
|------------------------------------------------------------------
|------------------------------------------------------------------
|--99999999-121212-111111-----------------------121212-111111------
|-------------------------1212-1010101010101010---------------1212-
|------------------------------------------------------------------

---------------------------------------------------------|
---------------------------------------------------------|
-----------------------------99999999--------------------|
-99999999-121212-111111---------------12121212-11111111--|
------------------------1212-----------------------------|
---------------------------------------------------------|

END:
E
|-----|
|-----|
|-----|
|-----|
|--2--|
|--0--|

SONG STRUCTURE:

BASS INTRO (4X)
RIFF1 (4X)
FILL1 (1X)
BASS RIFF (2X)
RIFF2 (4X)
RIFF3 (2X)
RIFF3 w/FILL2 (2X)
RIFF4 (2X)
RIFF5 (2X)
RIFF6 (4X)
FILL3 (2X)
RIFF7 (8X)
FILL4 (1X)
RIFF8 (2X)
RIFF8 w/FILL5 (2X)
RIFF8 (2X)
RIFF8 w/FILL5 (2X)
RIFF8 (2X)
BASS RIFF (2X)
RIFF2 (4X)
END (1X)

Log In to leave a comment

After registration we will return you to the same place
Comments
face-with-monocle
If you wait a bit, some comments may appear here...

Shhh...