Loading...
Corrosion Of Conformity logo

Vote With A Bullet Corrosion Of Conformity

  • 0
  • Share
  • Transposing
    0
  • Font Size
Vote With a Bullet, as performed by Corrosion of Conformity
Tabbed by Robert Hamner
Tuning is a half step down, with the low E tuned to C#
Eb, Bb, Gb, Db, Ab, C#

Intro 3 times
E----------------------------------------------]------------]--------------------------------------------|
B----------------------------------------------]------------]--------------------------------------------|
G----------------------------------------------]------------]--------------------------------------------|
D----------------------------------------------]------------]--------------------------------------------|
A-0-0-3--3-00---0-0-3--3--00--x3-7-3-0-3--3-00]-0-0-3--3-00]-0-0-3--3-----------------------------------|
D-0-0-3--3-00---0-0-3--3--00--x3-7-3-0-3--3-00]-0-0-3--3-00]-0-0-3--3-----------------------------------|
P.m. -- -- -- -----------------------------------------------|

Verse 3 times
E--------------------------------]----------------------------]--------------------------------------------|
B--------------------------------]----------------------------]--------------------------------------------|
G--------------------------------]----------------------------]--------------------------------------------|
D--------------------------------]----------------------------]--------------------------------------------|
A-0-0-3p0-0-0-3p0-0-0-3-0-3-0-3p0]-0-0-3p0-0-0-3p0-0-0-3-0-3-5]--------------------------------------------|
D-0-0-3p0-0-0-3p0-0-0-3-0-3-0-3p0]-0-0-3p0-0-0-3p0-0-0-3-0-3-5]--------------------------------------------|

E---------------------------------------------------------------------------------------------------------|
B---------------------------------------------------------------------------------------------------------|
G---------------------------------------------------------------------------------------------------------|
D---------------------------------------------------------------------------------------------------------|
A-0-0-3p0-0-0-3p0-0-0-3-0-3-0-3p0--0-0-3p0-0-0-3p0-0-0-3-0-3-5--------------------------------------------|
D-0-0-3p0-0-0-3p0-0-0-3-0-3-0-3p0--0-0-3p0-0-0-3p0-0-0-3-0-3-5--------------------------------------------|
- - - - - - - - - - - - - - -

Chorus 2 times
E---------------------------------------------------------]---------------------------------------------|
B---------------------------------------------------------]---------------------------------------------|
G---------------------------------------------------------]---------------------------------------------|
D---------------------------------------------------------]---------------------------------------------|
A-0-0-6-5~-0-5-3~-0-3-5-6-5-3~-0-0-6-5~-0-5-3~-0-3-0-3-3~-]---------------------------------------------|
D-0-0-6-5~-0-5-3~-0-3-5-6-5-3~-0-0-6-5~-0-5-3~-0-3-0-3-3~-]---------------------------------------------|

Solo(with wah)
E----------------------------------------------------------------------------------------------------|
B-13p10-13p10----------------------------------------------------------------------------------------|
G-------------12p10-12p10-12brp10----12brp10--------------------10h12--------------------------------|
D---------------------------------12---------12-12~-------10h12--------------------------------------|
A---------------------------------------------------10h12--------------------------------------------|
D----------------------------------------------------------------------------------------------------|

E---------------------------------------------------------------------|
B---------------------------------------------------------------------|
G-12brp10----12brp10----12brp10----12brp10-------12b-12b-12bAH-12bAH--|
D---------12---------12---------12---------12-12----------------------|
A---------------------------------------------------------------------|
D---------------------------------------------------------------------|
interlude
E--------15bAH]-----------------------------------------------------------|
B-------------]-----------------------------------------------------------|
G--12bAH------]-----------------------------------------------------------|
D-------------]-----------------------------------------------------------|
A-------------]-0-65-0-65-0-3-0-5p3-0-5p3-0-3-0-000-3-0-000-3-0-5p3-03--|
D-------------]-0-65-0-65-0-3-0-5p3-0-5p3-0-3-0-000-3-0-000-3-0-5p3-03--|
- - - - - - - --- - --- -

H-hammer on
P-pull off
-slide down
/-slide up
B-bend
Br-bend and release back to the original note
Brp-bend, release back to the original note, and the pull off to the
note indicated
~-vibrato
AH-artificial harmonic
X-pick slide

I don't know for sure this is right. This is just what I play, and it
Sounds good to me. The solo I put is close to the original, but I
Don't think it's exact. Any questions or comments, e-mail me at
[email protected]

Log In to leave a comment

After registration we will return you to the same place
Comments
face-with-monocle
If you wait a bit, some comments may appear here...

Shhh...

Most Popular