Corrosion Of Conformity logo

These Shrouded Temples Corrosion Of Conformity

  • 0
  • Share
  • Font Size
Corrosion Of Conformity – These Shrouded Temples
[This tab will view correctly in Notepad]

Title - These Shrouded Temples
Artist - Corrosion of Conformity
Album - BLiND

NOTE - All double/triple guitaring is in real time.

PM - Palm Mute
Lr - Let ring until next note
... - Let ring for time
V - Vibrato
/ - Slide
* - Track time (counting down)

____________________________________________________________________________________________
If you choose to use one guitar on this, both parts can be played by one guitar.

Guitar 1
PM... PM..... PM......
|-------------------------------------------------------------------------------------------
|-------------------------------------------------------------------------------------------
|-------------------------------------------------------------------------------------------
|--5-5--5lr-------------5--5----5lr---------------------5--5----5lr-------------------------
|--5-5--5lr-------------5--5----5lr---------------------5--5----5lr-------------------------
|--3-3--3lr-------------3--3----3lr---------------------3--3----5lr-------------------------

Guitar 2
PM.... PM...... PM....
|-------------------------------------------------------------------------------------------
|-------------------------------------------------------------------------------------------
|-------------------------------------------------------------------------------------------
|-----------5-5--5lr--------------------5--5----5lr---------------------5-5----5lr----------
|-----------5-5--5lr--------------------5--5----5lr---------------------5-5----5lr----------
|-----------3-3--3lr--------------------3--3----3lr---------------------3-3----3lr----------

____________________________________________________________________________________________

Guitar 1
|-------------------------------------------------------------------------------------------
|-------------------------------------------------------------------------------------------
|-------------------------------------------------------------------------------------------
|----5---------------5---------------5---------------5--------------------------------------
|------5---4-----------5---4-----------5---4-----------5---4--------------------------------
|--3-----3---------3-----3---------3-----3---------3-----3----------------------------------

____________________________________________________________________________________________

All Guitars
PM... V VPM.. PM... V VPM.. PM... V VPM..
|-------------------------------------------------------------------------------------------
|-------------------------------------------------------------------------------------------
|-------------------------------------------------------------------------------------------
|--7-6-5..5-5--5-------3..----7-6-5..5-5--5-------3..---7-6-5..5-5--5-------3..---7-6-5..5-5
|--7-6-5..5-5----5---4--------7-6-5..5-5----5---4-------7-6-5..5-5----5---4-------7-6-5..5-5
|--5-4-3..3-3------3------55--5-4-3..3-3------3------55-5-4-3..3-3------3------55-5-4-3..3-3

____________________________________________________________________________________________
All Guitars
V VPM.. PM... V V PM...
|-------------------------------------------------------------------------------------------
|-------------------------------------------------------------------------------------------
|-------------------------------------------------------------------------------------------
|--5-------3..----7-6-5/2--6-5--6-5----------7-6-5/2--6-5--6-5------------------------------
|----5---4--------7-6-5/2------------5..4....7-6-5/2------------5-4-------------------------
|------3------55--5-4-3/0--------------------5-4-3/0----------------5--4--------------------
Time:1:08*
____________________________________________________________________________________________

Guitar 1
PM... PM... V VPM.. PM...
|-------------------------------------------------------------------------------------------
|-------------------------------------------------------------------------------------------
|-------------------------------------------------------------------------------------------
|--5/2--6-5--6-5----------7-6-5/2--6-5--6-5------------5-5-5--5-------3..----7-6-5..5-5----
|--5/2------------5..4....7-6-5/2------------5-4-------5-5-5----5---4--------7-6-5..5-5----
|--3/0--------------------5-4-3/0----------------5..4..3-3-3------3------55--5-4-3..3-3----

(FIGURE 1 plays until the last note. If you have the song, you'll know when to play.)

____________________________________________________________________________________________

All Guitars
PM... V VPM.. PM... PM...
|-------------------------------------------------------------------------------------------
|-------------------------------------------------------------------------------------------
|-------------------------------------------------------------------------------------------
|--5------3..----7-6-5..5-5--5-------3..----7-6-5..5-5--5-------3..7-6-5/2--6-5--6-5--------
|----5---4-------7-6-5..5-5----5---4--------7-6-5..5-5----5---4----7-6-5/2------------5..4..
|------3-----55--5-4-3..3-3------3------55--5-4-3..3-3------3------5-4-3/0------------------
Time0:31*
____________________________________________________________________________________________

All Guitars
PM.......... PM...... PM... PM...
|-------------------------------------------------------------------------------------------
|-------------------------------------------------------------------------------------------
|-------------------------------------------------------------------------------------------
|--7-6-5--5-5--6-5--6-5--------------5--5-5--6-5--6-5--------------5--5-5--6-5--6-5---------
|--7-6-5--5-5------------5-4---------5--5-5------------5..4..------5--5-5------------5..4..3
|--5-4-3--3-3----------------5..4..--3--3-3-------------------5-4--3--3-3-------------------

|-------------------------------------------------------------------------------------------
|-------------------------------------------------------------------------------------------
|-------------------------------------------------------------------------------------------
|----5lr------------------------------------------------------------------------------------
|--..5lr------------------------------------------------------------------------------------
|----3lr------------------------------------------------------------------------------------

____________________________________Tabbed by Andrew Touesnard______________________________

Log In to leave a comment

After registration we will return you to the same place
Comments
face-with-monocle
If you wait a bit, some comments may appear here...

Shhh...

Versions

Most Popular