Coral logo

Simon Diamond Coral

  • 0
  • Share
  • Transposing
    0
  • Font Size
Coral – Simon Diamond
Band:The Coral
Song:Simon Diamond
Submitted by thom (ct)

Intro & Verse

Dm / Fmaj

E --1------1------
B ----2-------1---
G ----------------
D -0--------------
A -------3--------
E ----------------

OOhhhhhh

C / Dm / Fmaj / Emaj

Fill between verses: verses:

E|---------------------------------------------------------------------|
B|---------------------3--3--3--1---------------------------3--3--3--1-|
G|-7-6-5-4-3-2-1-0---------------------7-6-5-4-3-2-1-0-----------------|
D|---------------------------------------------------------------------|
A|---------------------------------------------------------------------|
E|---------------------------------------------------------------------|

Chorus:

Dm C Dm C
What Will Become of Simon Diamond?
Dm C Dm C
Water Himself can't Change the climate!
Dm C Dm C
What Will Become of Simon Diamond?
Dm C Dm C
Water Himself can't Change the climate!

Theres a start!

Log In to leave a comment

After registration we will return you to the same place
Comments
face-with-monocle
If you wait a bit, some comments may appear here...

Shhh...

Most Popular
You Might Like