Coldplay logo

Pour me Coldplay

  • 1
  • Share
  • Transposing
    0
  • Font Size
Coldplay – Pour me
Intro: A#maj7  A#maj7  A#maj7  A#maj7 }x2
A#maj7 G#maj7 A#maj7 G#maj7 }x2

Verse 1:
Am Em
Poor me flowing out to sea,
Am G A Em
An opportunity that went by,
Am Em
Poor you now whatcha gonna do,
Am G A Em
Whatcha gonna do you just cry,

Break: A#maj7 A#maj7 A#maj7 A#maj7
A#maj7 G#maj7 A#maj7 G#maj7

Verse 2:
Am Em
Poor you always come and go,
Am Em
You're trying to discern,
G A Emin
You don't know why,
Am Em
Poor you oh whatcha gonna do,
Am Em
Come on love I'll see it through,
G A Em
I don't know why,

Chorus:
E|-12-14---7--10---12-5--
B|-----------------------
G|-----------------------
D|-----------------------
A|-----------------------
E|-----------------------
I hear ya come nearer,

E|-12-14---7---------9-----7----------
B|---------------------------7--9-----
G|------------------------------------
D|------------------------------------
A|------------------------------------
E|------------------------------------
I hear you but I don't understand,

E|-12-14---7--10---12-5---
B|------------------------
G|------------------------
D|------------------------
A|------------------------
E|------------------------
I hear ya come nearer,

E|-12-14---7---------9-----7----------
B|---------------------------7--9-----
G|------------------------------------
D|------------------------------------
A|------------------------------------
E|------------------------------------
I hear you but I don't understand,

Verse 3:
Am Em
Poor me float me out to sea,
Am Em
Oh no just won't you let it be,
G A Em
Come on try,
Am Em
Poor you oh whatcha gonna do,
Am Em G A Em
Oh whatcha gonna do just cry,

Chorus:
E|-12-14---7--10---12-5--
B|-----------------------
G|-----------------------
D|-----------------------
A|-----------------------
E|-----------------------
I hear ya come nearer,

E|-12-14---7---------9-----7----------
B|---------------------------7--9-----
G|------------------------------------
D|------------------------------------
A|------------------------------------

Log In to leave a comment

After registration we will return you to the same place
Comments
face-with-monocle
If you wait a bit, some comments may appear here...

Shhh...

Most Popular
You Might Like