Loading...
Cold logo

Witch Cold

  • 0
  • Share
  • Transposing
    0
  • Font Size
Witch
Straight C Tuning, tune down two whole steps

1= C 4= A#
2= G 5= F
3= D# 6= C

| ----------------------------------------------------------------------------15-----------
| ---3---3---3---3---3---3---3---3-------3---3---3---3---3---3---3---3--------12-------
| -7---7---7---7---7---7---7---7-------7---7---7---7---7---7---7---7----------13---
| -----------------------------------7------------------------------------------------------
| -------------------------------------------------------------------------------------------
| -------------------------------------------------------------------------------------------
Intro Riff 1

| -------------------------------------
| -------------------------------------
| -------------------------------------
| -5/7-7-7-5/7-7-7-5/7-7-7-8--8----
| -3/5-5-5-3/5-5-5-3/5-5-5-6--6----
| -------------------------------------
Intro Riff 2

| -------------------------------
| -------------------------------
| -------------------------------
| -5-7-7-7---5-7-7-7---8-8---
| -3-5-5-5---3-5-5-5---6-6---
| -------------------------------
Verse *hammer these chords, do not pick

| --------------------------------------------------
| --------------------------------------------------
| --------------------------------------------------
| --------------------------------------------------
| -5--5-5-5--5-5-5-5-5--6--6-6-6--6-6-6-6-6---
| -3--3-3-3--3-3-3-3-3--4--4-4-4--4-4-4-4-4---
Chorus

| --15-15-15------------15-15-15------------17-17--
| -------------14-14-14------------14-14-14---------
| ------------------------------------------------------
| ------------------------------------------------------
| ------------------------------------------------------
| ------------------------------------------------------
Bridge

============================================================

Cold
Witch
From: 13 Ways to Bleed On Stage
Tabbed By: Dark Prince
Tuning: CGCFAD

Intro

D--8--8--8--8--8--8--8--8--7--8--8--8--8--8--8--8--8----/14-122-------
A-8--8--8--8--8--8--8--8--7--8--8--8--8--8--8--8--8--8-----------------

Verse

C-35-5-5---35-5-5---35-5---15-5-
G-13-3-3---13-3-3---13-3---13-3-

Chorus

G-3-3-3-3--4-4-4-4-
C-3-3-3-3--4-4-4-4-

Outro

D-8-8-8-8--14-14--12-12-
====

Log In to leave a comment

After registration we will return you to the same place
Comments
face-with-monocle
If you wait a bit, some comments may appear here...

Shhh...

Most Popular
You Might Like