Loading...
Cold logo

Send In The Clowns Cold

  • 0
  • Share
  • Transposing
    0
  • Font Size
Send In The Clowns
Straight C Tuning, tune down two whole steps

1= C 4= A#
2= G 5= F
3= D# 6= C

| ---10-9-10-9-10-9-10--------|
| -8--------------------------|
| ----------------------------|
| ----------------------------|
| ----------------------------|
| ----------------------------|
Intro/Verse

| -----------------------------------------------------------------------|
| -----------------------------------------------------------------------|
| -----------------------------------------------------------------------|
| -4-4--4-4-4-2--------------------7-7-7-7-7-7-7-5-5-5-5-5-5-5-----------|
| -2-2--2-2-2-0--5--5-5-5-5-5-5-5-5-5-5-5-5-5-3-3-3-3-3-3-3--------------|
| -----------------3--3-3-3-3-3-3----------------------------------------|
Chorus gtr. 1 (Terry)

| -------------------------------------------------------------|
| --------------------------------------7--8--10--8--7--5------|
| -------------------------------------------------------------|
| -------------------------------------------------------------|
| -9-9--9-9-9--7--5--5-5-5-5-5-5-------------------------------|
| -7-7--7-7-7--5--3--3-3-3-3-3-3-------------------------------|
Chorus gtr. 2 (Kelly)

| ----------------------------------------------|
| ----------------------------------------------|
| ----------------------------------------------|
| -4-2-4-2-4-2---------------4-4-4-4-5-5--------|
| -2-0-2-0-2-0----2-3-3--2--2-2-2-2-3-3---------|
| ------------- -----0-1-1--0-------------------|
Bridge

| --------------------------------|
| --------------------------------|
| -16-16-16-16-16-16-16-----------|
| --------------------------------|
| -14-14-14-14-14-14-14-----------|
| --------------------------------|
Outro (terry, played with wah pedal)

Find Old Friends

Undefined
More...

[Close]

[Close]

Undefined

Log In to leave a comment

After registration we will return you to the same place
Comments
face-with-monocle
If you wait a bit, some comments may appear here...

Shhh...

Versions

Most Popular
You Might Like