Loading...
Cold logo

Makes Her Sick Cold

  • 0
  • Share
  • Transposing
    0
  • Font Size
===================================================================
Band: Cold
Song: Makes Her Sick
Album: Cold
Author: Obsidian ([email protected])
Tuning: C, F, Bb, D#
Notes: This song almost has a punk element.
Aim for a more brisk than heavy sound.
===================================================================

Intro/Verse:
Eb|--------------------------|------------------|
Bb|--------------------------|------------------|
F |-2-2--2-2-2--2-2-2-2-2222-|-3-3--3-3-3-3-5-3-|
C |--------------------------|------------------|

Chorus:
Eb|------------------|-------------------|
Bb|------------------|-------------------|
F |------------------|-------------------|
C |-0-0-0-0--0-0-0-0-|-3-3-3-3--5-5--2-2-|

Bridge:
Eb|------------------|------------------|
Bb|------------------|------------------|
F |-3-3-3-3--2-2-2-2-|----------2-2-2-2-|
C |------------------|-3-3-3-3----------|

Log In to leave a comment

After registration we will return you to the same place
Comments
face-with-monocle
If you wait a bit, some comments may appear here...

Shhh...

Versions

Most Popular
You Might Like