Cohen Leonard logo

Improvisation Cohen Leonard

  • 1
  • Share
  • Transposing
    0
  • Font Size
Cohen Leonard – Improvisation
Tuning: C F A# D# G C (standard, two full steps down)

First couple of bars:

Am
| . . . . . | . . . . .
C|------------------0---1---0---3---1---0-----------|
G|------0---1---3---------------------------3---1---|
Eb|----2---2---2---2---2---2---2---2---2---2---2---2-|
Bb|--------------------------------------------------|
F|--0-----------------------------------------------|
C|--------------------------------------------------|

Am
| . . . . . | . . . . .
C|--------------0---1---0---3---1---0---------------|
G|--0---1---3---------------------------3---1---0---|
Eb|----2---2---2---2---2---2---2---2---2---2---2---2-|
Bb|--------------------------------------------------|
F|--------------------------------------------------|
C|--------------------------------------------------|

Am
| . . . . . | . . . . .
C|--------------------------------------------------|
G|--1---3---1---0---1---0h1-----0---1---3---1---0h1-|
Eb|----2---2---2---2---2---2---2---2---2---2---2---2-|
Bb|--------------------------------------------------|
F|--------------------------0-----------------------|
C|--------------------------------------------------|

Log In to leave a comment

After registration we will return you to the same place
Comments
face-with-monocle
If you wait a bit, some comments may appear here...

Shhh...