Coheed And Cambria logo

Three Evils Embodied In Love Coheed And Cambria

  • 0
  • Share
  • Font Size
Coheed And Cambria – Three Evils Embodied In Love
Tuning: Standard

E-|--------------------------|
B-|--------------------------|
G-|---------------6-6--6-----|
D-|-7-7--7-7-7--7-7-7--7-7-7-| x2
A-|-7-7--7-5-5--5-9-9--9-5-5-|
E-|-5-5--5-5-5--5------------|

Across the floor... write them in a letter that says goodbye
E-|--------------------------| |---| |-----|
B-|--------------------------| |---| |-----|
G-|---------------6-6--6-----| |-4-| |-6-7-|
D-|-7-7--7-7-7--7-7-7--7-7-7-| x2 |-4-| x3 |-6-7-|
A-|-7-7--7-5-5--5-9-9--9-5-5-| |-2-| |-4-5-|
E-|-5-5--5-5-5--5------------| |---| |-----|

You'll listen to reason...
E-|----------------------|
B-|----------------------|
G-|-2--2-2-----7p6-6-6h7-|
D-|-2--4-x--5-----7-7----| x2
A-|-0--2-4--5------------|
E-|------2--3------------|

Slowly discarded were... write them in a letter that says reborn
E-|--------------------------| |---| |-----|
B-|--------------------------| |---| |-----|
G-|---------------6-6--6-----| |-4-| |-6-7-|
D-|-7-7--7-7-7--7-7-7--7-7-7-| x2 |-4-| x2 |-6-7-|
A-|-7-7--7-5-5--5-9-9--9-5-5-| |-2-| |-4-5-|
E-|-5-5--5-5-5--5------------| |---| |-----|

You'll listen to reason...you'll stomach the hurt
E-|----------------------|-----------|---|
B-|----------------------|-----------|---|
G-|-2--2-2-----7p6-6-6h7-|-2--2-2----|---|
D-|-2--4-x--5-----7-7----|-2--4-x--5-|-5-|
A-|-0--2-4--5------------|-0--2-4--5-|-5-|
E-|------2--3------------|------2--3-|-3-|

Following you across... I'll fire on
E-|-----------------------------|
B-|-----------------------------|
G-|--------------------2-9-7----|
D-|-4------------------2-9-7--4-| x3
A-|-4-----4h-5p4--2h-0-0-7-5--4-|
E-|-2--2h5------5-------------2-|

On the wrong way out...
E-|--------------------------|
B-|--------------------------|
G-|-4-----7-----66-66-6--6-6-|
D-|-4-----7-----66-66-6--6-6-| x3
A-|-2-----5-----44-44-4--4-4-|
E-|--------------------------|

Dear my friends...
E-|-----------|
B-|-----------|
G-|-2-2-2---7-|
D-|-2-2-x-2-7-| x4 - fade x1
A-|-0---4-2-5-|
E-|---4-2-0---|

| / slide up
| slide down
| h hammer-on
| p pull-off
| ~ vibrato
| + harmonic
| x Mute note
====================================================

Log In to leave a comment

After registration we will return you to the same place
Comments
face-with-monocle
If you wait a bit, some comments may appear here...

Shhh...