Loading...
Coheed And Cambria logo

Junesong Provision Coheed And Cambria

  • 0
  • Share
  • Transposing
    0
  • Font Size
Coheed and Cambria
Junesong Provision

Droped D Tuning - D-A-D-G- B-E

Palm Mute = *
Slide Up = /
Slide Down =

Intro (Guitar 2)

E|---------------------------------------------------------------|
B|---------------------------------------------------------------|
G|---------------------------------------------------------------|
D|--4--4-4-------------------------7--7-------------7-7-7-7-6-7--| (7x)
A|--2--2-2-0-----4-----0-----0-----5--5-------------5-5-5-5-4-7--|
D|---------0-0-0-4-4-4-0-0-0-0-0-0-5--5-5-5-5-5-5-5-----------7--|
Your low E ( D) in this case might rattle so mute it if you have to

Fill #1 (Guitar 1) - Played During Intro

E|---------------------------------10-----10-----10-----10-----10--|
B|-------------------------10--7-8----7-8----7-8----7-8----7-8-----|
G|-------4------4---4--7-4-----------------------------------------|
D|--/4-5---4-5----4------------------------------------------------|
A|-----------------------------------------------------------------|
D|-----------------------------------------------------------------|

Fill #2 (Guitar 1) - Played During Intro

E|-----------------------------10-----10-----------------|
B|-------------------------10-----7-7----7-7-7-10-8-7----|
G|-------4------4---4--7-4----------------------------9--|
D|--/4-5---4-5----4--------------------------------------|
A|-------------------------------------------------------|
D|-------------------------------------------------------|

Now all you need is someone to shoot a gun and you got the song.....

Log In to leave a comment

After registration we will return you to the same place
Comments
face-with-monocle
If you wait a bit, some comments may appear here...

Shhh...