Cocksuckers logo

Viva La Vaginas Cocksuckers

  • 0
  • Share
  • Font Size
Cocksuckers – Viva La Vaginas
Date: Wed, 22 Nov 1995 23:23:59 -0800
From: [email protected] (Scott, Mari & Brian )
Subject: Tab: Viva la vaginas - The Cocksuckers *NEW*

Viva La Vaginas!

Written and
Transcribed by
Brian Ebbitt!

Intro:
E----------------|
B----------------|
G----------------|
D----3---5-------|
A-0---------2----|
E--------------3-|

Verse: (Use this pattern Pluck 4-3-2-5-1 on Chords)

I love em' hairy

I love em' shaved

But hump em' too much

Or they'll get chaifed!

Chorus

E-----------------|
B-----------------|
G-----------------|
D-5--9----2--4^---|
A-5--9------------|
E-3--7------------|

Viva La Vaginas!

Viva La Vaginas!
---- End Forwarded Message

Log In to leave a comment

After registration we will return you to the same place
Comments
face-with-monocle
If you wait a bit, some comments may appear here...

Shhh...