Loading...
Coal Chamber logo

Bradley Coal Chamber

  • 0
  • Share
  • Transposing
    0
  • Font Size
GUITAR TABLATURE ONLINE

URL: www.angelfire.com/bc/tablature
EMAIL: [email protected]

----------------------------------------------------------------------------------------------

SONG: Bradley
BAND: Coal Chamber
ALBUM: Coal Chamber
TRANSCRIBED BY: Unknown
DATE: Unknown

----------------------------------------------------------------------------------------------

TUNING: tune your guitar down 1.5 steps and then drop d (B,F#,B,E,G#, C#)

MAIN RIFF:

C#|---------------------------------------|
G#|------------------------------------9--|
E|------------------------------------x--|
B|------------------------------------6--|
F#|--3----6--5---6-5-6--5---6-5-----------|
B|-----0------0----------0------0--0-----|

CHORUS:

C#|---------------|
G#|---------------|
E|---------------|
B|--2-0-2-0-2-3--|
F#|--2-0-2-0-2-3--|
B|--2-0-2-0-2-3--|

BRIDGE:

C#|------------------------------|
G#|------------------------------|
E|------------------------------|
B|--2-0-2-0-4-3--2-0-2-3-4-2p0--|
F#|--2-0-2-0-4-3--2-0-2-3-4-2p0--|
B|--2-0-2-0-4-3--2-0-2-3-4-2p0--|

End on C# power chord

Log In to leave a comment

After registration we will return you to the same place
Comments
face-with-monocle
If you wait a bit, some comments may appear here...

Shhh...

Versions

Most Popular
You Might Like