Clutch logo

The Mob Goes Wild Clutch

  • 1
  • Share
  • Font Size
Clutch – The Mob Goes Wild
-----------------------------------------------------------------------------
Clutch - The mob Goes wild
-----------------------------------------------------------------------------
Tabbed by: Tyler Eibl -- AIM - Xmp311X
Email: [email protected]

Tuning:standard

Im pretty sure this is the way this song is played. IM me with Qs or comments.

Intro: played by two guitars. Guitar one plays this.
E|-------------|
B|-------------|
G|-------------|
D|--7----------|
A|--5----------|
E|----0-0-0----|x4

E|------------------------------------------------------------
B|------------------------------------------------------------
G|------------------------------------------------------------
D|-------------------------5^---------------------------5^----
A|---5-7-7-7-5-7-7-7-5-7-7-----7--5-7-7-7-5-7-7-7-5-7-7-----7-
E|------------------------------------------------------------

E|--------------------------------------------------------------------------|
B|--------------------------------------------------------------------------|
G|--------------------------------------------------------------------------|
D|-------5^------------5^---------------------------------------------------|
A|-5-7-7-----7---5-7-7----7---5-7-7-7-5-7-7-7-5-7-7-7-5-7-7-7---------------|
E|--------------------------------------------------------------------------|

Verse:

E|--------------------------------------------------------------------------|
B|--------------------------------------------------------------------------|
G|--------------------------------------------------------------------------|
D|--7--------5-------7-----5^-----7-------7-------7--------5-5-5--7---------|
A|--5--------7-------5--------7---5-------5-------5--------5-5-5--7---------|
E|----0-0-0----0-0-0---0-0----------0-0-0---0-0-0---0-0-0--3-3-3--5---------|

E|--------------------------------------------------------------------------|
B|--------------------------------------------------------------------------|
G|--------------------------------------------------------------------------|
D|-------5^-----------------------------------------------------------------|
A|---057-----7--5~----------------------------------------------------------|
E|-0----------------7---5-3--0----------------------------------------------|
....streets on fire....

Chorus is 2 guitar parts at once

Chorus pt. 2 guitar 1

E|--------------------------------------------------------------------------|
B|--------------------------------------------------------------------------|
G|-22-2-2-2-2-2-2-2---------------------------------------------------------|
D|-22-2-2-2-2-2-2-2---5---5---5---5---7---7---7---7-------------------------|
A|-00-0-0-0-0-0-0-0---5---5---5---5---7---7---7---7-------------------------|
E|------------------0-3-0-3-0-3-0-3-0-5-0-5-0-5-0-5-0-----------------------|

Chorus pt. 2 guitar 2
E|--------------------------------------------------------------------------|
B|--------------------------------------------------------------------------|
G|--------------------------------------------------------------------------|
D|-79-9-9-9-9-9-9-9---5---5---5---5---7---7---7---7-------------------------|
A|-57-7-7-7-7-7-7-7---5---5---5---5---7---7---7---7-------------------------|
E|------------------0-3-0-3-0-3-0-3-0-5-0-5-0-5-0-5-0-----------------------|

E|---------------------------------------------------------------------------|
B|---------------------------------------------------------------------------|
G|---------------------------------------------------------------------------|
D|-9-9-9-9-9-9-9-9-9-9-9-9---------------------------------------------------|
A|-9-9-9-9-9-9-9-9-9-9-9-9---------------------------------------------------|
E|-7-7-7-7-7-7-7-7-7-7-7-7--10--7~---10---7~----10--10--7--5-----------------|
..well alright!

Solo... I dont know the solo..but these are the notes behind it played by guitar 2.

E|---------------------------------------------------------------------------|
B|---------------------------------------------------------------------------|
G|---------------------------------------------------------------------------|
D|-------5^------------------------------------------------------------------|
A|---057-----7--5~-----------------------------------------------------------|
E|-0----------------7---5-3--0-----------------------------------------------|

It plays most of the parts above a few more times over, and then ends something like this:

E|-------------------------------------------------------------------|
B|-------------------------------------------------------------------|
G|-------------------------------------------------------------------|
D|-9-9-9-9-9-9-9-9-9-9-9-9-9-9-9-9-9-9-9-9-9-9-9-9-------------------|
A|-9-9-9-9-9-9-9-9-9-9-9-9-9-9-9-9-9-9-9-9-9-9-9-9-------------------|
E|-7-7-7-7-7-7-7-7-7-7-7-7-7-7-7-7-7-7-7-7-7-7-7-7-------------------|
...and then some more random notes.

| / slide up
| slide down
| h hammer-on
| p pull-off
| ~ vibrato
| + harmonic
| x Mute note
=============================================================================

Log In to leave a comment

After registration we will return you to the same place
Comments
face-with-monocle
If you wait a bit, some comments may appear here...

Shhh...

Most Popular