Clawfinger logo

Confrontation Clawfinger

  • 0
  • Share
  • Transposing
    0
  • Font Size
Clawfinger – Confrontation
Clawfinger - Confrontation
Tabbed By: guitarfreak

Drop D tuning

X= ghost note

Main Riff

E-----------------------------------------|
B-----------------------------------------|
G-----------------------------------------|
D---0-0--0-0---0-1-1-1--x-x--x-x-1--x-x-1-|
A---0-0--0-0---0-1-1-1--x-x--x-x-1--x-x-1-|
D-0-0-0--0-0---0-1-1-1--x-x--x-x-1--x-x-1-|

Main Riff 2 (After Second Chorus)

E-----------------------------------------|
B-----------------------------------------|
G-----------------------------------------|
D---0-0--0-0---x-x--x-x---x-1-1-1---------|
A---0-0--0-0---x-x--x-x---x-1-1-1---------|
D-0-0-0--0-0---x-x--x-x---x-1-1-1---------|

===================================================

Log In to leave a comment

After registration we will return you to the same place
Comments
face-with-monocle
If you wait a bit, some comments may appear here...

Shhh...

Most Popular