Loading...
Cky logo

Shippensbam Cky

  • 0
  • Share
  • Transposing
    0
  • Font Size
Camp Kill Yourself-Shippensbam

Bam Sings this song, it was first called shippensbam.

Standard Tuning

Intro/Main Riff
---------------------------------
---------------------------------
---------------------------------
-------------7-5-------------2---
-5-5-7-8-------------5---3-3---3-
---------6-6-----3-3---3---------

Verse
---------------------------------
---------------------------------
---------------------------------
-7-7-------------7-7-------------
-5-5-----5-5-----5-5-----5-5-----
---------3-3-------------3-3-----

Know what makes me happy the things that make you sad
The feel that I controls of Zor by the radio jag

*Guitar keeps playing the verse while the bass plays
The main riff under it

I found my indecision the product of the media grime
The feel that I control when you press rewind

Pre-Chorus
(these are power chords)

F G
And now I'm on the wings hoping that you'll hear
Don't bother to respond you love to hear me again

And when the sun beams down all of your lies
Close, close, yeah close the light

Main Riff one time

Then

SOLO

Guitar 1

With lots of fuzz and wah

--------------------------------------------------------------------------------
--------------------------------------------------------------------------------
11-11-10-10-8-8-10-10-11-11-13-13-8-8---11-11-10-10-8-8-10-10-11-11-13-13-8-8---
--------------------------------------------------------------------------------
--------------------------------------------------------------------------------
--------------------------------------------------------------------------------

----------------------------------
----------------------------------
11-11-10-10-8-8-6-6-8-8-10-10-11/-
----------------------------------
----------------------------------
----------------------------------
Slide up

Guitar 2

-----------------------
-----------------------
-----------------------
-7-7---------------5-5-
-5-5---8-8---5-5---3-3-
-------6-6---3-3-------

Verse 2
This time the guitar plays the main riff, too

The sky's all grey in the barracks I know I'm a lousy hero
The classic act of feeling is that of a memory

Pre-Chorus 2

And you are peering down through parascopic eyes
Close, close, yeah close

Chorus

Power Chords

A# D C
I try to hide the fact that I'm afraid

----------------------------------------
----------------------------------------
----------------------------------------
----------------------------------------
----------------------------------------
-3-1-3----1-3-1-3----1-3-1-3----1-3-1-3-

A# D C A# D C
We'll drive the band to Shippensburg and hope that we get free

----------------------------------------
----------------------------------------
----------------------------------------
----------------------------------------
----------------------------------------
-3-1-3----1-3-1-3----1-3-1-3----1-3-1-3-

Bridge

Guitar 1

-----------------------------------------------------------------
-----------------------------------------------------------------
-----------------------------------------------------------------
-----------------------------------------------------------------
-5-5-5-5-----------------3-3-3-3-5-5-5-5-----------------3-3-3-3-
---------6-6-6-6-3-3-3-3-----------------6-6-6-6-3-3-3-3---------

Guitar 2

-----------------------------------------------------------------
-----------------------------------------------------------------
---------------------------------9-9-9-9-----------------7-7-7-7-
---------------------------------7-7-7-7-101010107-7-7-7-5-5-5-5-
---------------------------------5-5-5-5-8-8-8-8-5-5-5-5-3-3-3-3-
-----------------------------------------6-6-6-6-3-3-3-3---------

Play 2x then

-----------------------
-----------------------
-----------------------
-7-7---------------5-5-
-5-5---8-8---5-5---3-3-
-------6-6---3-3-------
Play 4x

Verse 3
Music same as verse 2

And in the end of a season the voices turn it all off
The things that were so meaningless 'til the next one comes along

Chorus

And the outro is based on the second part of the chorus, if you can't figure it out, well then...

Log In to leave a comment

After registration we will return you to the same place
Comments
face-with-monocle
If you wait a bit, some comments may appear here...

Shhh...