Cky logo

Shippensbam-shippensberg Cky

  • 0
  • Share
  • Font Size
Cky – Shippensbam-shippensberg
Shippensberg Volume Two

Standard Tuning
(E,A,D,G,B, E)

Intro/Main Riff
E|---------------------------------|
B|---------------------------------|
G|---------------------------------|
D|-------------7-5-------------2---|
A|-5-5-7-8-------------5---3-3---3-|
E|---------6-6-----3-3---3---------|

Verse
E|---------------------------------|
B|---------------------------------|
G|---------------------------------|
D|-7-7-------------7-7-------------|
A|-5-5-----5-5-----5-5-----5-5-----|
E|---------3-3-------------3-3-----|

Play the Main Riff again

SOLO

Use fuzz and wah
E|-------------------------------------------------------
B|-------------------------------------------------------
G|-11-11-10-10-8-8-10-10-11-11-13-13-8-8---11-11-10-10-8-
D|-------------------------------------------------------
A|-------------------------------------------------------
E|-------------------------------------------------------

----------------------------------------------------------|
----------------------------------------------------------|
8-10-10-11-11-13-13-8-8-11-11-10-10-8-8-6-6-8-8-10-10-11/-|
----------------------------------------------------------|
----------------------------------------------------------|
----------------------------------------------------------|

Guitar 2

E|-----------------------|
B|-----------------------|
G|-----------------------|
D|-7-7---------------5-5-|
A|-5-5---8-8---5-5---3-3-|
E|-------6-6---3-3-------|

Verse 2

E|----------------------------------------|
B|----------------------------------------|
G|----------------------------------------|
D|----------------------------------------|
A|----------------------------------------|
E|-3-1-3----1-3-1-3----1-3-1-3----1-3-1-3-|
Play x2

Bridge

Guitar 1

E|---------------------------------------------------------
B|---------------------------------------------------------
G|---------------------------------------------------------
D|---------------------------------------------------------
A|-5-5-5-5-----------------3-3-3-3-5-5-5-5-----------------
E|---------6-6-6-6-3-3-3-3-----------------6-6-6-6-3-3-3-3-

----------|
----------|
----------|
----------|
-3-3-3-3/-|
----------|
Solo end

E|------------------------------------|
B|------------------------------------|
G|-9-9-9-9-----------------7-7-7-7----|
D|-7-7-7-7-101010107-7-7-7-5-5-5-5----|
A|-5-5-5-5-8-8-8-8-5-5-5-5-3-3-3-3----|
E|---------6-6-6-6-3-3-3-3------------|

Play 2x

E|-----------------------|
B|-----------------------|
G|-----------------------|
D|-7-7---------------5-5-|
A|-5-5---8-8---5-5---3-3-|
E|-------6-6---3-3-------|
Play 4x

Log In to leave a comment

After registration we will return you to the same place
Comments
face-with-monocle
If you wait a bit, some comments may appear here...

Shhh...